  0
SECTION
  2
HEADER
  9
$ACADVER
  1
AC1015
  9
$ACADMAINTVER
 70
     6
  9
$DWGCODEPAGE
  3
ANSI_1254
  9
$INSBASE
 10
0.0
 20
0.0
 30
0.0
  9
$EXTMIN
 10
0.0
 20
0.0
 30
0.0
  9
$EXTMAX
 10
279.4
 20
215.9
 30
0.0
  9
$LIMMIN
 10
0.0
 20
0.0
  9
$LIMMAX
 10
279.4
 20
215.9
  9
$ORTHOMODE
 70
     0
  9
$REGENMODE
 70
     1
  9
$FILLMODE
 70
     1
  9
$QTEXTMODE
 70
     0
  9
$MIRRTEXT
 70
     1
  9
$LTSCALE
 40
1.0
  9
$ATTMODE
 70
     1
  9
$TEXTSIZE
 40
3.5
  9
$TRACEWID
 40
1.0
  9
$TEXTSTYLE
  7
Standard
  9
$CLAYER
  8
0
  9
$CELTYPE
  6
ByLayer
  9
$CECOLOR
 62
   256
  9
$CELTSCALE
 40
1.0
  9
$DISPSILH
 70
     0
  9
$DIMSCALE
 40
1.0
  9
$DIMASZ
 40
3.5
  9
$DIMEXO
 40
1.0
  9
$DIMDLI
 40
3.75
  9
$DIMRND
 40
0.0
  9
$DIMDLE
 40
0.0
  9
$DIMEXE
 40
1.0
  9
$DIMTP
 40
0.0
  9
$DIMTM
 40
0.0
  9
$DIMTXT
 40
3.5
  9
$DIMCEN
 40
2.5
  9
$DIMTSZ
 40
0.0
  9
$DIMTOL
 70
     0
  9
$DIMLIM
 70
     0
  9
$DIMTIH
 70
     1
  9
$DIMTOH
 70
     1
  9
$DIMSE1
 70
     0
  9
$DIMSE2
 70
     0
  9
$DIMTAD
 70
     1
  9
$DIMZIN
 70
     0
  9
$DIMBLK
  1

  9
$DIMASO
 70
     1
  9
$DIMSHO
 70
     1
  9
$DIMPOST
  1

  9
$DIMAPOST
  1

  9
$DIMALT
 70
     0
  9
$DIMALTD
 70
     3
  9
$DIMALTF
 40
0.0393700787
  9
$DIMLFAC
 40
1.0
  9
$DIMTOFL
 70
     1
  9
$DIMTVP
 40
0.0
  9
$DIMTIX
 70
     0
  9
$DIMSOXD
 70
     0
  9
$DIMSAH
 70
     0
  9
$DIMBLK1
  1

  9
$DIMBLK2
  1

  9
$DIMSTYLE
  2
ISO-25
  9
$DIMCLRD
 70
     0
  9
$DIMCLRE
 70
     0
  9
$DIMCLRT
 70
     0
  9
$DIMTFAC
 40
1.0
  9
$DIMGAP
 40
1.524
  9
$DIMJUST
 70
     0
  9
$DIMSD1
 70
     0
  9
$DIMSD2
 70
     0
  9
$DIMTOLJ
 70
     0
  9
$DIMTZIN
 70
     0
  9
$DIMALTZ
 70
     0
  9
$DIMALTTZ
 70
     0
  9
$DIMUPT
 70
     0
  9
$DIMDEC
 70
     2
  9
$DIMTDEC
 70
     2
  9
$DIMALTU
 70
     2
  9
$DIMALTTD
 70
     3
  9
$DIMTXSTY
  7
Standard
  9
$DIMAUNIT
 70
     0
  9
$DIMADEC
 70
     2
  9
$DIMALTRND
 40
0.0
  9
$DIMAZIN
 70
     0
  9
$DIMDSEP
 70
    44
  9
$DIMATFIT
 70
     3
  9
$DIMFRAC
 70
     0
  9
$DIMLDRBLK
  1

  9
$DIMLUNIT
 70
     2
  9
$DIMLWD
 70
    -2
  9
$DIMLWE
 70
    -2
  9
$DIMTMOVE
 70
     0
  9
$LUNITS
 70
     2
  9
$LUPREC
 70
     2
  9
$SKETCHINC
 40
1.0
  9
$FILLETRAD
 40
10.0
  9
$AUNITS
 70
     0
  9
$AUPREC
 70
     2
  9
$MENU
  1
.
  9
$ELEVATION
 40
0.0
  9
$PELEVATION
 40
0.0
  9
$THICKNESS
 40
0.0
  9
$LIMCHECK
 70
     0
  9
$CHAMFERA
 40
0.0
  9
$CHAMFERB
 40
0.0
  9
$CHAMFERC
 40
0.0
  9
$CHAMFERD
 40
0.0
  9
$SKPOLY
 70
     0
  9
$TDCREATE
 40
2459935.69945007
  9
$TDUCREATE
 40
2459935.57445007
  9
$TDUPDATE
 40
2459935.699450254
  9
$TDUUPDATE
 40
2459935.574450254
  9
$TDINDWG
 40
0.0000000116
  9
$TDUSRTIMER
 40
0.0000000116
  9
$USRTIMER
 70
     1
  9
$ANGBASE
 50
0.0
  9
$ANGDIR
 70
     0
  9
$PDMODE
 70
     0
  9
$PDSIZE
 40
-1.0
  9
$PLINEWID
 40
0.0
  9
$SPLFRAME
 70
     0
  9
$SPLINETYPE
 70
     6
  9
$SPLINESEGS
 70
     8
  9
$HANDSEED
  5
ED
  9
$SURFTAB1
 70
     6
  9
$SURFTAB2
 70
     6
  9
$SURFTYPE
 70
     6
  9
$SURFU
 70
     6
  9
$SURFV
 70
     6
  9
$UCSBASE
  2

  9
$UCSNAME
  2

  9
$UCSORG
 10
0.0
 20
0.0
 30
0.0
  9
$UCSXDIR
 10
1.0
 20
0.0
 30
0.0
  9
$UCSYDIR
 10
0.0
 20
1.0
 30
0.0
  9
$UCSORTHOREF
  2

  9
$UCSORTHOVIEW
 70
     0
  9
$UCSORGTOP
 10
0.0
 20
0.0
 30
0.0
  9
$UCSORGBOTTOM
 10
0.0
 20
0.0
 30
0.0
  9
$UCSORGLEFT
 10
0.0
 20
0.0
 30
0.0
  9
$UCSORGRIGHT
 10
0.0
 20
0.0
 30
0.0
  9
$UCSORGFRONT
 10
0.0
 20
0.0
 30
0.0
  9
$UCSORGBACK
 10
0.0
 20
0.0
 30
0.0
  9
$PUCSBASE
  2

  9
$PUCSNAME
  2

  9
$PUCSORG
 10
0.0
 20
0.0
 30
0.0
  9
$PUCSXDIR
 10
1.0
 20
0.0
 30
0.0
  9
$PUCSYDIR
 10
0.0
 20
1.0
 30
0.0
  9
$PUCSORTHOREF
  2

  9
$PUCSORTHOVIEW
 70
     0
  9
$PUCSORGTOP
 10
0.0
 20
0.0
 30
0.0
  9
$PUCSORGBOTTOM
 10
0.0
 20
0.0
 30
0.0
  9
$PUCSORGLEFT
 10
0.0
 20
0.0
 30
0.0
  9
$PUCSORGRIGHT
 10
0.0
 20
0.0
 30
0.0
  9
$PUCSORGFRONT
 10
0.0
 20
0.0
 30
0.0
  9
$PUCSORGBACK
 10
0.0
 20
0.0
 30
0.0
  9
$USERI1
 70
     0
  9
$USERI2
 70
     0
  9
$USERI3
 70
     0
  9
$USERI4
 70
     0
  9
$USERI5
 70
     0
  9
$USERR1
 40
0.0
  9
$USERR2
 40
0.0
  9
$USERR3
 40
0.0
  9
$USERR4
 40
0.0
  9
$USERR5
 40
0.0
  9
$WORLDVIEW
 70
     1
  9
$SHADEDGE
 70
     3
  9
$SHADEDIF
 70
    70
  9
$TILEMODE
 70
     1
  9
$MAXACTVP
 70
    64
  9
$PINSBASE
 10
0.0
 20
0.0
 30
0.0
  9
$PLIMCHECK
 70
     0
  9
$PEXTMIN
 10
1.0000000000E+20
 20
1.0000000000E+20
 30
1.0000000000E+20
  9
$PEXTMAX
 10
-1.0000000000E+20
 20
-1.0000000000E+20
 30
-1.0000000000E+20
  9
$PLIMMIN
 10
0.0
 20
0.0
  9
$PLIMMAX
 10
420.0
 20
297.0
  9
$UNITMODE
 70
     0
  9
$VISRETAIN
 70
     1
  9
$PLINEGEN
 70
     0
  9
$PSLTSCALE
 70
     1
  9
$TREEDEPTH
 70
  3020
  9
$CMLSTYLE
  2
Standard
  9
$CMLJUST
 70
     0
  9
$CMLSCALE
 40
20.0
  9
$PROXYGRAPHICS
 70
     1
  9
$MEASUREMENT
 70
     1
  9
$CELWEIGHT
370
    -1
  9
$ENDCAPS
280
     0
  9
$JOINSTYLE
280
     0
  9
$LWDISPLAY
290
     1
  9
$INSUNITS
 70
     4
  9
$HYPERLINKBASE
  1

  9
$STYLESHEET
  1

  9
$XEDIT
290
     1
  9
$CEPSNTYPE
380
     0
  9
$PSTYLEMODE
290
     1
  9
$FINGERPRINTGUID
  2
{7d47d16e-87cc-4fef-8d73-ff3efbb564d9}
  9
$VERSIONGUID
  2
{FAEB1C32-E019-11D5-929B-00C0DF256EC4}
  9
$EXTNAMES
290
     1
  9
$PSVPSCALE
 40
0.0
  9
$OLESTARTUP
290
     0
  0
ENDSEC
  0
SECTION
  2
CLASSES
  0
CLASS
  1
ACDBDICTIONARYWDFLT
  2
AcDbDictionaryWithDefault
  3
ObjectDBX Classes
 90
        0
280
     0
281
     0
  0
CLASS
  1
VISUALSTYLE
  2
AcDbVisualStyle
  3
ObjectDBX Classes
 90
     4095
280
     0
281
     0
  0
CLASS
  1
MATERIAL
  2
AcDbMaterial
  3
ObjectDBX Classes
 90
     1153
280
     0
281
     0
  0
CLASS
  1
SCALE
  2
AcDbScale
  3
ObjectDBX Classes
 90
     1153
280
     0
281
     0
  0
CLASS
  1
TABLESTYLE
  2
AcDbTableStyle
  3
ObjectDBX Classes
 90
     4095
280
     0
281
     0
  0
CLASS
  1
MLEADERSTYLE
  2
AcDbMLeaderStyle
  3
ACDB_MLEADERSTYLE_CLASS
 90
     4095
280
     0
281
     0
  0
CLASS
  1
SUN
  2
AcDbSun
  3
SCENEOE
 90
     1153
280
     0
281
     0
  0
CLASS
  1
ACDBPLACEHOLDER
  2
AcDbPlaceHolder
  3
ObjectDBX Classes
 90
        0
280
     0
281
     0
  0
CLASS
  1
LAYOUT
  2
AcDbLayout
  3
ObjectDBX Classes
 90
        0
280
     0
281
     0
  0
ENDSEC
  0
SECTION
  2
TABLES
  0
TABLE
  2
VPORT
  5
8
330
0
100
AcDbSymbolTable
 70
     1
  0
VPORT
  5
29
330
8
100
AcDbSymbolTableRecord
100
AcDbViewportTableRecord
  2
*Active
 70
     0
 10
0.0
 20
0.0
 11
1.0
 21
1.0
 12
139.7
 22
107.95
 13
0.0
 23
0.0
 14
10.0
 24
10.0
 15
10.0
 25
10.0
 16
0.0
 26
0.0
 36
1.0
 17
0.0
 27
0.0
 37
0.0
 40
215.9
 41
1.2941176471
 42
50.0
 43
0.0
 44
0.0
 50
0.0
 51
0.0
 71
     0
 72
  2000
 73
     1
 74
     3
 75
     0
 76
     0
 77
     0
 78
     0
281
     0
 65
     1
110
0.0
120
0.0
130
0.0
111
1.0
121
0.0
131
0.0
112
0.0
122
1.0
132
0.0
 79
     0
146
0.0
  0
ENDTAB
  0
TABLE
  2
LTYPE
  5
5
330
0
100
AcDbSymbolTable
 70
     6
  0
LTYPE
  5
14
330
5
100
AcDbSymbolTableRecord
100
AcDbLinetypeTableRecord
  2
ByBlock
 70
     0
  3

 72
    65
 73
     0
 40
0.0
  0
LTYPE
  5
15
330
5
100
AcDbSymbolTableRecord
100
AcDbLinetypeTableRecord
  2
ByLayer
 70
     0
  3

 72
    65
 73
     0
 40
0.0
  0
LTYPE
  5
16
330
5
100
AcDbSymbolTableRecord
100
AcDbLinetypeTableRecord
  2
Continuous
 70
     0
  3
Solid line
 72
    65
 73
     0
 40
0.0
  0
LTYPE
  5
6E
330
5
100
AcDbSymbolTableRecord
100
AcDbLinetypeTableRecord
  2
HIDDEN
 70
     0
  3
Hidden __ __ __ __ __ __ __ __ __ __ __ __ __ __
 72
    65
 73
     2
 40
1.905
 49
1.27
 74
     0
 49
-0.635
 74
     0
  0
LTYPE
  5
6F
330
5
100
AcDbSymbolTableRecord
100
AcDbLinetypeTableRecord
  2
PHANTOM
 70
     0
  3
Phantom ______  __  __  ______  __  __  ______
 72
    65
 73
     6
 40
12.7
 49
6.35
 74
     0
 49
-1.27
 74
     0
 49
1.27
 74
     0
 49
-1.27
 74
     0
 49
1.27
 74
     0
 49
-1.27
 74
     0
  0
LTYPE
  5
70
330
5
100
AcDbSymbolTableRecord
100
AcDbLinetypeTableRecord
  2
CENTER
 70
     0
  3
Center ____ _ ____ _ ____ _ ____ _ ____ _ ____
 72
    65
 73
     4
 40
10.16
 49
6.35
 74
     0
 49
-1.27
 74
     0
 49
1.27
 74
     0
 49
-1.27
 74
     0
  0
LTYPE
  5
71
330
5
100
AcDbSymbolTableRecord
100
AcDbLinetypeTableRecord
  2
CENTERX2
 70
     0
  3
Center (2x) ________  __  ________  __  _____
 72
    65
 73
     4
 40
20.32
 49
12.7
 74
     0
 49
-2.54
 74
     0
 49
2.54
 74
     0
 49
-2.54
 74
     0
  0
LTYPE
  5
72
330
5
100
AcDbSymbolTableRecord
100
AcDbLinetypeTableRecord
  2
DOT2
 70
     0
  3
Dot (.5x) ........................................
 72
    65
 73
     2
 40
0.635
 49
0.0
 74
     0
 49
-0.635
 74
     0
  0
ENDTAB
  0
TABLE
  2
LAYER
  5
2
330
0
100
AcDbSymbolTable
 70
    17
  0
LAYER
  5
10
330
2
100
AcDbSymbolTableRecord
100
AcDbLayerTableRecord
  2
0
 70
     0
 62
     7
  6
Continuous
370
    -3
390
F
  0
LAYER
  5
73
330
2
100
AcDbSymbolTableRecord
100
AcDbLayerTableRecord
  2
FORMAT
 70
     0
 62
     7
  6
Continuous
370
    -3
390
F
  0
LAYER
  5
74
330
2
100
AcDbSymbolTableRecord
100
AcDbLayerTableRecord
  2
YARDIMCI_GEOMETRI
 70
     0
 62
    -6
  6
Continuous
290
     0
370
    -3
390
F
  0
LAYER
  5
75
330
2
100
AcDbSymbolTableRecord
100
AcDbLayerTableRecord
  2
SAYFA_CERCEVESI
 70
     0
 62
     7
  6
Continuous
370
    25
390
F
  0
LAYER
  5
76
330
2
100
AcDbSymbolTableRecord
100
AcDbLayerTableRecord
  2
ANTET
 70
     0
 62
     7
  6
Continuous
370
    -3
390
F
  0
LAYER
  5
77
330
2
100
AcDbSymbolTableRecord
100
AcDbLayerTableRecord
  2
OLCU
 70
     0
 62
   150
  6
Continuous
370
    -3
390
F
  0
LAYER
  5
78
330
2
100
AcDbSymbolTableRecord
100
AcDbLayerTableRecord
  2
METIN
 70
     0
 62
    96
  6
Continuous
370
    -3
390
F
  0
LAYER
  5
79
330
2
100
AcDbSymbolTableRecord
100
AcDbLayerTableRecord
  2
BALON
 70
     0
 62
     5
  6
Continuous
370
    -3
390
F
  0
LAYER
  5
7A
330
2
100
AcDbSymbolTableRecord
100
AcDbLayerTableRecord
  2
VURGU
 70
     0
 62
     7
  6
Continuous
370
    -3
390
F
  0
LAYER
  5
7B
330
2
100
AcDbSymbolTableRecord
100
AcDbLayerTableRecord
  2
SILIK
 70
     0
 62
     7
  6
Continuous
370
    -3
390
F
  0
LAYER
  5
7C
330
2
100
AcDbSymbolTableRecord
100
AcDbLayerTableRecord
  2
MODEL
 70
     0
 62
     7
  6
Continuous
370
    -3
390
F
  0
LAYER
  5
7D
330
2
100
AcDbSymbolTableRecord
100
AcDbLayerTableRecord
  2
DETAYLANDıRMA
 70
     0
 62
   190
  6
Continuous
370
    -3
390
F
  0
LAYER
  5
7E
330
2
100
AcDbSymbolTableRecord
100
AcDbLayerTableRecord
  2
TOLERANS
 70
     0
 62
   230
  6
Continuous
370
    -3
390
F
  0
LAYER
  5
7F
330
2
100
AcDbSymbolTableRecord
100
AcDbLayerTableRecord
  2
MERKEZ_CIZGILERI
 70
     0
 62
    30
  6
Continuous
370
    -3
390
F
  0
LAYER
  5
80
330
2
100
AcDbSymbolTableRecord
100
AcDbLayerTableRecord
  2
KESIT-DETAY_CIZGILERI
 70
     0
 62
     7
  6
Continuous
370
    -3
390
F
  0
LAYER
  5
81
330
2
100
AcDbSymbolTableRecord
100
AcDbLayerTableRecord
  2
\U+041E\U+0421\U+0415\U+0412\U+042B\U+0415
 70
     0
 62
     7
  6
Continuous
370
    -3
390
F
  0
LAYER
  5
82
330
2
100
AcDbSymbolTableRecord
100
AcDbLayerTableRecord
  2
\U+0412\U+041E\U+0414\U+042F\U+041D\U+042B\U+0415_\U+0417\U+041D\U+0410\U+041A\U+0418
 70
     0
 62
    11
  6
Continuous
370
    -3
390
F
  0
ENDTAB
  0
TABLE
  2
STYLE
  5
3
330
0
100
AcDbSymbolTable
 70
     1
  0
STYLE
  5
11
330
3
100
AcDbSymbolTableRecord
100
AcDbTextStyleTableRecord
  2
Standard
 70
     0
 40
0.0
 41
1.0
 50
0.0
 71
     0
 42
3.5
  3
txt
  4

  0
ENDTAB
  0
TABLE
  2
VIEW
  5
6
330
0
100
AcDbSymbolTable
 70
     0
  0
ENDTAB
  0
TABLE
  2
UCS
  5
7
330
0
100
AcDbSymbolTable
 70
     0
  0
ENDTAB
  0
TABLE
  2
APPID
  5
9
330
0
100
AcDbSymbolTable
 70
     1
  0
APPID
  5
12
330
9
100
AcDbSymbolTableRecord
100
AcDbRegAppTableRecord
  2
ACAD
 70
     0
  0
ENDTAB
  0
TABLE
  2
DIMSTYLE
  5
A
330
0
100
AcDbSymbolTable
 70
     1
100
AcDbDimStyleTable
  0
DIMSTYLE
105
27
330
A
100
AcDbSymbolTableRecord
100
AcDbDimStyleTableRecord
  2
ISO-25
 70
     0
 41
2.5
 42
0.625
 43
3.75
 44
1.25
 73
     0
 74
     0
 77
     1
 78
     8
140
2.5
141
2.5
143
0.0393700787
147
0.625
171
     3
172
     1
178
     0
271
     2
272
     2
274
     3
278
    44
283
     0
284
     8
340
11
  0
ENDTAB
  0
TABLE
  2
BLOCK_RECORD
  5
1
330
0
100
AcDbSymbolTable
 70
     5
  0
BLOCK_RECORD
  5
1F
330
1
100
AcDbSymbolTableRecord
100
AcDbBlockTableRecord
  2
*Model_Space
340
22
  0
BLOCK_RECORD
  5
1B
330
1
100
AcDbSymbolTableRecord
100
AcDbBlockTableRecord
  2
*Paper_Space
340
1E
  0
BLOCK_RECORD
  5
23
330
1
100
AcDbSymbolTableRecord
100
AcDbBlockTableRecord
  2
*Paper_Space0
340
26
  0
BLOCK_RECORD
  5
97
330
1
100
AcDbSymbolTableRecord
100
AcDbBlockTableRecord
  2
SW_CENTERMARKSYMBOL_0
340
0
102
{BLKREFS
331
A2
102
}
  0
BLOCK_RECORD
  5
AC
330
1
100
AcDbSymbolTableRecord
100
AcDbBlockTableRecord
  2
SW_CENTERMARKSYMBOL_1
340
0
102
{BLKREFS
331
B7
102
}
  0
BLOCK_RECORD
  5
BF
330
1
100
AcDbSymbolTableRecord
100
AcDbBlockTableRecord
  2
SW_CENTERMARKSYMBOL_2
340
0
102
{BLKREFS
331
CA
102
}
  0
BLOCK_RECORD
  5
D2
330
1
100
AcDbSymbolTableRecord
100
AcDbBlockTableRecord
  2
SW_CENTERMARKSYMBOL_3
340
0
102
{BLKREFS
331
DD
102
}
  0
ENDTAB
  0
ENDSEC
  0
SECTION
  2
BLOCKS
  0
BLOCK
  5
20
330
1F
100
AcDbEntity
  8
0
100
AcDbBlockBegin
  2
*Model_Space
 70
     0
 10
0.0
 20
0.0
 30
0.0
  3
*Model_Space
  1

  0
ENDBLK
  5
21
330
1F
100
AcDbEntity
  8
0
100
AcDbBlockEnd
  0
BLOCK
  5
1C
330
1B
100
AcDbEntity
 67
     1
  8
0
100
AcDbBlockBegin
  2
*Paper_Space
 70
     0
 10
0.0
 20
0.0
 30
0.0
  3
*Paper_Space
  1

  0
ENDBLK
  5
1D
330
1B
100
AcDbEntity
 67
     1
  8
0
100
AcDbBlockEnd
  0
BLOCK
  5
24
330
23
100
AcDbEntity
  8
0
100
AcDbBlockBegin
  2
*Paper_Space0
 70
     0
 10
0.0
 20
0.0
 30
0.0
  3
*Paper_Space0
  1

  0
ENDBLK
  5
25
330
23
100
AcDbEntity
  8
0
100
AcDbBlockEnd
  0
BLOCK
  5
98
330
97
100
AcDbEntity
  8
0
100
AcDbBlockBegin
  2
SW_CENTERMARKSYMBOL_0
 70
     0
 10
0.0
 20
0.0
 30
0.0
  3
SW_CENTERMARKSYMBOL_0
  1

  0
LINE
  5
9A
330
97
100
AcDbEntity
  8
FORMAT
 62
     0
100
AcDbLine
 10
0.0
 20
0.0
 30
0.0
 11
0.0
 21
2.5
 31
0.0
  0
LINE
  5
9B
330
97
100
AcDbEntity
  8
FORMAT
 62
     0
100
AcDbLine
 10
0.0
 20
0.0
 30
0.0
 11
-2.5
 21
0.0
 31
0.0
  0
LINE
  5
9C
330
97
100
AcDbEntity
  8
FORMAT
 62
     0
100
AcDbLine
 10
0.0
 20
0.0
 30
0.0
 11
0.0
 21
-2.5
 31
0.0
  0
LINE
  5
9D
330
97
100
AcDbEntity
  8
FORMAT
 62
     0
100
AcDbLine
 10
0.0
 20
0.0
 30
0.0
 11
2.5
 21
0.0
 31
0.0
  0
LINE
  5
9E
330
97
100
AcDbEntity
  8
FORMAT
 62
     0
100
AcDbLine
 10
0.0
 20
5.0
 30
0.0
 11
0.0
 21
180.0
 31
0.0
  0
LINE
  5
9F
330
97
100
AcDbEntity
  8
FORMAT
 62
     0
100
AcDbLine
 10
-5.0
 20
0.0
 30
0.0
 11
-180.0
 21
0.0
 31
0.0
  0
LINE
  5
A0
330
97
100
AcDbEntity
  8
FORMAT
 62
     0
100
AcDbLine
 10
0.0
 20
-5.0
 30
0.0
 11
0.0
 21
-180.0
 31
0.0
  0
LINE
  5
A1
330
97
100
AcDbEntity
  8
FORMAT
 62
     0
100
AcDbLine
 10
5.0
 20
0.0
 30
0.0
 11
180.0
 21
0.0
 31
0.0
  0
ENDBLK
  5
99
330
97
100
AcDbEntity
  8
0
100
AcDbBlockEnd
  0
BLOCK
  5
AD
330
AC
100
AcDbEntity
  8
0
100
AcDbBlockBegin
  2
SW_CENTERMARKSYMBOL_1
 70
     0
 10
0.0
 20
0.0
 30
0.0
  3
SW_CENTERMARKSYMBOL_1
  1

  0
LINE
  5
AF
330
AC
100
AcDbEntity
  8
FORMAT
 62
     0
100
AcDbLine
 10
0.0
 20
0.0
 30
0.0
 11
0.0
 21
2.5
 31
0.0
  0
LINE
  5
B0
330
AC
100
AcDbEntity
  8
FORMAT
 62
     0
100
AcDbLine
 10
0.0
 20
0.0
 30
0.0
 11
-2.5
 21
0.0
 31
0.0
  0
LINE
  5
B1
330
AC
100
AcDbEntity
  8
FORMAT
 62
     0
100
AcDbLine
 10
0.0
 20
0.0
 30
0.0
 11
0.0
 21
-2.5
 31
0.0
  0
LINE
  5
B2
330
AC
100
AcDbEntity
  8
FORMAT
 62
     0
100
AcDbLine
 10
0.0
 20
0.0
 30
0.0
 11
2.5
 21
0.0
 31
0.0
  0
LINE
  5
B3
330
AC
100
AcDbEntity
  8
FORMAT
 62
     0
100
AcDbLine
 10
0.0
 20
5.0
 30
0.0
 11
0.0
 21
180.0
 31
0.0
  0
LINE
  5
B4
330
AC
100
AcDbEntity
  8
FORMAT
 62
     0
100
AcDbLine
 10
-5.0
 20
0.0
 30
0.0
 11
-180.0
 21
0.0
 31
0.0
  0
LINE
  5
B5
330
AC
100
AcDbEntity
  8
FORMAT
 62
     0
100
AcDbLine
 10
0.0
 20
-5.0
 30
0.0
 11
0.0
 21
-180.0
 31
0.0
  0
LINE
  5
B6
330
AC
100
AcDbEntity
  8
FORMAT
 62
     0
100
AcDbLine
 10
5.0
 20
0.0
 30
0.0
 11
180.0
 21
0.0
 31
0.0
  0
ENDBLK
  5
AE
330
AC
100
AcDbEntity
  8
0
100
AcDbBlockEnd
  0
BLOCK
  5
C0
330
BF
100
AcDbEntity
  8
0
100
AcDbBlockBegin
  2
SW_CENTERMARKSYMBOL_2
 70
     0
 10
0.0
 20
0.0
 30
0.0
  3
SW_CENTERMARKSYMBOL_2
  1

  0
LINE
  5
C2
330
BF
100
AcDbEntity
  8
FORMAT
 62
     0
100
AcDbLine
 10
0.0
 20
0.0
 30
0.0
 11
0.0
 21
2.5
 31
0.0
  0
LINE
  5
C3
330
BF
100
AcDbEntity
  8
FORMAT
 62
     0
100
AcDbLine
 10
0.0
 20
0.0
 30
0.0
 11
-2.5
 21
0.0
 31
0.0
  0
LINE
  5
C4
330
BF
100
AcDbEntity
  8
FORMAT
 62
     0
100
AcDbLine
 10
0.0
 20
0.0
 30
0.0
 11
0.0
 21
-2.5
 31
0.0
  0
LINE
  5
C5
330
BF
100
AcDbEntity
  8
FORMAT
 62
     0
100
AcDbLine
 10
0.0
 20
0.0
 30
0.0
 11
2.5
 21
0.0
 31
0.0
  0
LINE
  5
C6
330
BF
100
AcDbEntity
  8
FORMAT
 62
     0
100
AcDbLine
 10
0.0
 20
5.0
 30
0.0
 11
0.0
 21
180.0
 31
0.0
  0
LINE
  5
C7
330
BF
100
AcDbEntity
  8
FORMAT
 62
     0
100
AcDbLine
 10
-5.0
 20
0.0
 30
0.0
 11
-180.0
 21
0.0
 31
0.0
  0
LINE
  5
C8
330
BF
100
AcDbEntity
  8
FORMAT
 62
     0
100
AcDbLine
 10
0.0
 20
-5.0
 30
0.0
 11
0.0
 21
-180.0
 31
0.0
  0
LINE
  5
C9
330
BF
100
AcDbEntity
  8
FORMAT
 62
     0
100
AcDbLine
 10
5.0
 20
0.0
 30
0.0
 11
180.0
 21
0.0
 31
0.0
  0
ENDBLK
  5
C1
330
BF
100
AcDbEntity
  8
0
100
AcDbBlockEnd
  0
BLOCK
  5
D3
330
D2
100
AcDbEntity
  8
0
100
AcDbBlockBegin
  2
SW_CENTERMARKSYMBOL_3
 70
     0
 10
0.0
 20
0.0
 30
0.0
  3
SW_CENTERMARKSYMBOL_3
  1

  0
LINE
  5
D5
330
D2
100
AcDbEntity
  8
FORMAT
 62
     0
100
AcDbLine
 10
0.0
 20
0.0
 30
0.0
 11
0.0
 21
2.5
 31
0.0
  0
LINE
  5
D6
330
D2
100
AcDbEntity
  8
FORMAT
 62
     0
100
AcDbLine
 10
0.0
 20
0.0
 30
0.0
 11
-2.5
 21
0.0
 31
0.0
  0
LINE
  5
D7
330
D2
100
AcDbEntity
  8
FORMAT
 62
     0
100
AcDbLine
 10
0.0
 20
0.0
 30
0.0
 11
0.0
 21
-2.5
 31
0.0
  0
LINE
  5
D8
330
D2
100
AcDbEntity
  8
FORMAT
 62
     0
100
AcDbLine
 10
0.0
 20
0.0
 30
0.0
 11
2.5
 21
0.0
 31
0.0
  0
LINE
  5
D9
330
D2
100
AcDbEntity
  8
FORMAT
 62
     0
100
AcDbLine
 10
0.0
 20
5.0
 30
0.0
 11
0.0
 21
180.0
 31
0.0
  0
LINE
  5
DA
330
D2
100
AcDbEntity
  8
FORMAT
 62
     0
100
AcDbLine
 10
-5.0
 20
0.0
 30
0.0
 11
-180.0
 21
0.0
 31
0.0
  0
LINE
  5
DB
330
D2
100
AcDbEntity
  8
FORMAT
 62
     0
100
AcDbLine
 10
0.0
 20
-5.0
 30
0.0
 11
0.0
 21
-180.0
 31
0.0
  0
LINE
  5
DC
330
D2
100
AcDbEntity
  8
FORMAT
 62
     0
100
AcDbLine
 10
5.0
 20
0.0
 30
0.0
 11
180.0
 21
0.0
 31
0.0
  0
ENDBLK
  5
D4
330
D2
100
AcDbEntity
  8
0
100
AcDbBlockEnd
  0
ENDSEC
  0
SECTION
  2
ENTITIES
  0
LINE
  5
83
330
1F
100
AcDbEntity
  8
0
  6
Continuous
 62
     7
370
    25
100
AcDbLine
 10
-129.7926992767
 20
83.2405934636
 30
0.0
 11
-129.7926992767
 21
-140.2594065364
 31
0.0
  0
LINE
  5
84
330
1F
100
AcDbEntity
  8
0
  6
Continuous
 62
     7
370
    25
100
AcDbLine
 10
225.2073007233
 20
-140.2594065364
 30
0.0
 11
225.2073007233
 21
83.2405934636
 31
0.0
  0
ARC
  5
85
330
1F
100
AcDbEntity
  8
0
  6
Continuous
 62
     7
370
    25
100
AcDbCircle
 10
225.2073007233
 20
83.2405934636
 30
0.0
 40
355.0000000000001
100
AcDbArc
 50
90.0
 51
180.0
  0
LINE
  5
86
330
1F
100
AcDbEntity
  8
0
  6
Continuous
 62
     7
370
    25
100
AcDbLine
 10
448.7073007233
 20
438.2405934636
 30
0.0
 11
225.2073007233
 21
438.2405934636
 31
0.0
  0
LINE
  5
87
330
1F
100
AcDbEntity
  8
0
  6
Continuous
 62
     7
370
    25
100
AcDbLine
 10
225.2073007233
 20
83.2405934636
 30
0.0
 11
448.7073007233
 21
83.2405934636
 31
0.0
  0
LINE
  5
88
330
1F
100
AcDbEntity
  8
0
  6
Continuous
 62
     7
370
    25
100
AcDbLine
 10
47.7073007233
 20
-140.2594065364
 30
0.0
 11
225.2073007233
 21
-140.2594065364
 31
0.0
  0
LINE
  5
89
330
1F
100
AcDbEntity
  8
0
  6
Continuous
 62
     7
370
    25
100
AcDbLine
 10
-129.7926992767
 20
-140.2594065364
 30
0.0
 11
47.7073007233
 21
-140.2594065364
 31
0.0
  0
LINE
  5
8A
330
1F
100
AcDbEntity
  8
0
  6
Continuous
 62
     7
370
    25
100
AcDbLine
 10
448.7073007233
 20
260.7405934636
 30
0.0
 11
448.7073007233
 21
83.2405934636
 31
0.0
  0
LINE
  5
8B
330
1F
100
AcDbEntity
  8
0
  6
Continuous
 62
     7
370
    25
100
AcDbLine
 10
448.7073007233
 20
438.2405934636
 30
0.0
 11
448.7073007233
 21
260.7405934636
 31
0.0
  0
LINE
  5
8C
330
1F
100
AcDbEntity
  8
0
  6
Continuous
 62
     1
370
    25
100
AcDbLine
 10
-129.7926992767
 20
83.2405934636
 30
0.0
 11
225.2073007233
 21
83.2405934636
 31
0.0
  0
LINE
  5
8D
330
1F
100
AcDbEntity
  8
0
  6
Continuous
 62
     1
370
    25
100
AcDbLine
 10
225.2073007233
 20
438.2405934636
 30
0.0
 11
225.2073007233
 21
83.2405934636
 31
0.0
  0
LINE
  5
8E
330
1F
100
AcDbEntity
  8
0
  6
Continuous
 62
     7
370
    25
100
AcDbLine
 10
-648.1634765916
 20
260.7405934636
 30
0.0
 11
-648.1634765916
 21
83.2405934636
 31
0.0
  0
LINE
  5
8F
330
1F
100
AcDbEntity
  8
0
  6
Continuous
 62
     7
370
    25
100
AcDbLine
 10
-293.1634765916
 20
83.2405934636
 30
0.0
 11
-293.1634765916
 21
260.7405934636
 31
0.0
  0
LINE
  5
90
330
1F
100
AcDbEntity
  8
0
  6
Continuous
 62
     7
370
    25
100
AcDbLine
 10
-648.1634765916
 20
83.2405934636
 30
0.0
 11
-648.1634765916
 21
-140.2594065364
 31
0.0
  0
LINE
  5
91
330
1F
100
AcDbEntity
  8
0
  6
Continuous
 62
     7
370
    25
100
AcDbLine
 10
-293.1634765916
 20
-140.2594065364
 30
0.0
 11
-293.1634765916
 21
83.2405934636
 31
0.0
  0
CIRCLE
  5
92
330
1F
100
AcDbEntity
  8
0
  6
Continuous
 62
     7
370
    25
100
AcDbCircle
 10
-470.6634765916
 20
260.7405934636
 30
0.0
 40
177.5
  0
CIRCLE
  5
93
330
1F
100
AcDbEntity
  8
0
  6
Continuous
 62
     7
370
    25
100
AcDbCircle
 10
-470.6634765916
 20
260.7405934636
 30
0.0
 40
145.3
  0
LINE
  5
94
330
1F
100
AcDbEntity
  8
0
  6
Continuous
 62
     7
370
    25
100
AcDbLine
 10
-648.1634765916
 20
-140.2594065364
 30
0.0
 11
-293.1634765916
 21
-140.2594065364
 31
0.0
  0
LINE
  5
95
330
1F
100
AcDbEntity
  8
0
  6
Continuous
 62
     1
370
    25
100
AcDbLine
 10
-470.6634765916
 20
83.2405934636
 30
0.0
 11
-293.1634765916
 21
83.2405934636
 31
0.0
  0
LINE
  5
96
330
1F
100
AcDbEntity
  8
0
  6
Continuous
 62
     1
370
    25
100
AcDbLine
 10
-648.1634765916
 20
83.2405934636
 30
0.0
 11
-470.6634765916
 21
83.2405934636
 31
0.0
  0
INSERT
  5
A2
330
1F
100
AcDbEntity
  8
FORMAT
 62
     7
100
AcDbBlockReference
  2
SW_CENTERMARKSYMBOL_0
 10
-470.6634765916
 20
260.7405934636
 30
0.0
  0
LINE
  5
A3
330
1F
100
AcDbEntity
  8
0
  6
Continuous
 62
     7
370
    25
100
AcDbLine
 10
448.7073007233
 20
940.4014303706
 30
0.0
 11
225.2073007233
 21
940.4014303706
 31
0.0
  0
LINE
  5
A4
330
1F
100
AcDbEntity
  8
0
  6
Continuous
 62
     7
370
    25
100
AcDbLine
 10
225.2073007233
 20
585.4014303706
 30
0.0
 11
448.7073007233
 21
585.4014303706
 31
0.0
  0
LINE
  5
A5
330
1F
100
AcDbEntity
  8
0
  6
Continuous
 62
     7
370
    25
100
AcDbLine
 10
225.2073007233
 20
940.4014303706
 30
0.0
 11
47.7073007233
 21
940.4014303706
 31
0.0
  0
LINE
  5
A6
330
1F
100
AcDbEntity
  8
0
  6
Continuous
 62
     7
370
    25
100
AcDbLine
 10
47.7073007233
 20
585.4014303706
 30
0.0
 11
225.2073007233
 21
585.4014303706
 31
0.0
  0
CIRCLE
  5
A7
330
1F
100
AcDbEntity
  8
0
  6
Continuous
 62
     7
370
    25
100
AcDbCircle
 10
47.7073007233
 20
762.9014303706
 30
0.0
 40
145.3000000000001
  0
CIRCLE
  5
A8
330
1F
100
AcDbEntity
  8
0
  6
Continuous
 62
     7
370
    25
100
AcDbCircle
 10
47.7073007233
 20
762.9014303706
 30
0.0
 40
177.5
  0
LINE
  5
A9
330
1F
100
AcDbEntity
  8
0
  6
Continuous
 62
     7
370
    25
100
AcDbLine
 10
448.7073007233
 20
940.4014303706
 30
0.0
 11
448.7073007233
 21
585.4014303706
 31
0.0
  0
LINE
  5
AA
330
1F
100
AcDbEntity
  8
0
  6
Continuous
 62
     1
370
    25
100
AcDbLine
 10
225.2073007233
 20
762.9014303706
 30
0.0
 11
225.2073007233
 21
585.4014303706
 31
0.0
  0
LINE
  5
AB
330
1F
100
AcDbEntity
  8
0
  6
Continuous
 62
     1
370
    25
100
AcDbLine
 10
225.2073007233
 20
940.4014303706
 30
0.0
 11
225.2073007233
 21
762.9014303706
 31
0.0
  0
INSERT
  5
B7
330
1F
100
AcDbEntity
  8
FORMAT
 62
     7
100
AcDbBlockReference
  2
SW_CENTERMARKSYMBOL_1
 10
47.7073007233
 20
762.9014303706
 30
0.0
  0
LINE
  5
B8
330
1F
100
AcDbEntity
  8
0
  6
Continuous
 62
     7
370
    25
100
AcDbLine
 10
689.7471460123
 20
83.2405934636
 30
0.0
 11
689.7471460123
 21
-140.2594065364
 31
0.0
  0
LINE
  5
B9
330
1F
100
AcDbEntity
  8
0
  6
Continuous
 62
     7
370
    25
100
AcDbLine
 10
1044.7471460123
 20
-140.2594065364
 30
0.0
 11
1044.7471460123
 21
83.2405934636
 31
0.0
  0
LINE
  5
BA
330
1F
100
AcDbEntity
  8
0
  6
Continuous
 62
     7
370
    25
100
AcDbLine
 10
1044.7471460123
 20
83.2405934636
 30
0.0
 11
1044.7471460123
 21
260.7405934636
 31
0.0
  0
LINE
  5
BB
330
1F
100
AcDbEntity
  8
0
  6
Continuous
 62
     7
370
    25
100
AcDbLine
 10
689.7471460123
 20
260.7405934636
 30
0.0
 11
689.7471460123
 21
83.2405934636
 31
0.0
  0
LINE
  5
BC
330
1F
100
AcDbEntity
  8
0
  6
Continuous
 62
     7
370
    25
100
AcDbLine
 10
689.7471460123
 20
-140.2594065364
 30
0.0
 11
1044.7471460123
 21
-140.2594065364
 31
0.0
  0
ARC
  5
BD
330
1F
100
AcDbEntity
  8
0
  6
Continuous
 62
     7
370
    25
100
AcDbCircle
 10
867.2471460123
 20
260.7405934636
 30
0.0
 40
177.4999999999999
100
AcDbArc
 50
0.0
 51
180.0
  0
LINE
  5
BE
330
1F
100
AcDbEntity
  8
0
  6
Continuous
 62
     1
370
    25
100
AcDbLine
 10
689.7471460123
 20
83.2405934636
 30
0.0
 11
1044.7471460123
 21
83.2405934636
 31
0.0
  0
INSERT
  5
CA
330
1F
100
AcDbEntity
  8
FORMAT
 62
     7
100
AcDbBlockReference
  2
SW_CENTERMARKSYMBOL_2
 10
867.2471460123
 20
260.7405934636
 30
0.0
  0
LINE
  5
CB
330
1F
100
AcDbEntity
  8
0
  6
Continuous
 62
     7
370
    25
100
AcDbLine
 10
47.7073007233
 20
-748.6750372261
 30
0.0
 11
225.2073007233
 21
-748.6750372261
 31
0.0
  0
LINE
  5
CC
330
1F
100
AcDbEntity
  8
0
  6
Continuous
 62
     7
370
    25
100
AcDbLine
 10
225.2073007233
 20
-393.6750372261
 30
0.0
 11
47.7073007233
 21
-393.6750372261
 31
0.0
  0
LINE
  5
CD
330
1F
100
AcDbEntity
  8
0
  6
Continuous
 62
     7
370
    25
100
AcDbLine
 10
448.7073007233
 20
-393.6750372261
 30
0.0
 11
225.2073007233
 21
-393.6750372261
 31
0.0
  0
LINE
  5
CE
330
1F
100
AcDbEntity
  8
0
  6
Continuous
 62
     7
370
    25
100
AcDbLine
 10
225.2073007233
 20
-748.6750372261
 30
0.0
 11
448.7073007233
 21
-748.6750372261
 31
0.0
  0
ARC
  5
CF
330
1F
100
AcDbEntity
  8
0
  6
Continuous
 62
     7
370
    25
100
AcDbCircle
 10
47.7073007233
 20
-571.1750372261
 30
0.0
 40
177.5
100
AcDbArc
 50
90.0
 51
270.0
  0
LINE
  5
D0
330
1F
100
AcDbEntity
  8
0
  6
Continuous
 62
     7
370
    25
100
AcDbLine
 10
448.7073007233
 20
-393.6750372261
 30
0.0
 11
448.7073007233
 21
-748.6750372261
 31
0.0
  0
LINE
  5
D1
330
1F
100
AcDbEntity
  8
0
  6
Continuous
 62
     1
370
    25
100
AcDbLine
 10
225.2073007233
 20
-393.6750372261
 30
0.0
 11
225.2073007233
 21
-748.6750372261
 31
0.0
  0
INSERT
  5
DD
330
1F
100
AcDbEntity
  8
FORMAT
 62
     7
100
AcDbBlockReference
  2
SW_CENTERMARKSYMBOL_3
 10
47.7073007233
 20
-571.1750372261
 30
0.0
  0
LINE
  5
DE
330
1F
100
AcDbEntity
  8
0
  6
Continuous
 62
     7
370
    25
100
AcDbLine
 10
1000.2697324453
 20
-254.0397549815
 30
0.0
 11
842.2313668501
 21
-345.2733614777
 31
0.0
  0
LINE
  5
DF
330
1F
100
AcDbEntity
  8
0
  6
Continuous
 62
     7
370
    25
100
AcDbLine
 10
1019.716941893
 20
-652.7207076228
 30
0.0
 11
1177.7553074882
 21
-561.4871011266
 31
0.0
  0
LINE
  5
E0
330
1F
100
AcDbEntity
  8
0
  6
Continuous
 62
     7
370
    25
100
AcDbLine
 10
627.962700711
 20
-716.3892485842
 30
0.0
 11
627.962700711
 21
-898.8861200407
 31
0.0
  0
LINE
  5
E1
330
1F
100
AcDbEntity
  8
0
  6
Continuous
 62
     7
370
    25
100
AcDbLine
 10
982.962700711
 20
-898.8861200407
 30
0.0
 11
982.962700711
 21
-716.3892485842
 31
0.0
  0
SPLINE
  5
E2
330
1F
100
AcDbEntity
  8
0
  6
Continuous
 62
     7
370
    25
100
AcDbSpline
210
0.0
220
0.0
230
1.0
 70
     8
 71
     3
 72
    50
 73
    46
 74
     0
 42
0.00000001
 43
0.00000001
 40
0.0
 40
0.0
 40
0.0
 40
0.0
 40
0.0152783760929784
 40
0.0387949252786381
 40
0.0623523233748274
 40
0.0860004687495043
 40
0.1097158392828386
 40
0.1334760935245878
 40
0.1572592287654159
 40
0.181042125984905
 40
0.204809861712944
 40
0.2285505358217906
 40
0.2522553127327191
 40
0.2759182902707096
 40
0.2995362656794108
 40
0.3231084417177215
 40
0.3466361080824799
 40
0.3701223240349711
 40
0.3935716191086273
 40
0.4169897211971205
 40
0.4403833155171218
 40
0.4637598338216852
 40
0.4871272705098929
 40
0.5104940205784867
 40
0.5338687333604067
 40
0.557257419432668
 40
0.5806687060176993
 40
0.6041112628841684
 40
0.6275934999417317
 40
0.6511234037055386
 40
0.6747083500697458
 40
0.6983548868840381
 40
0.7220684809805564
 40
0.7458532263938876
 40
0.7697115139987012
 40
0.79364366811811
 40
0.8176475631968921
 40
0.8417182434480895
 40
0.8658475799083537
 40
0.8900240110305006
 40
0.9142324220010704
 40
0.9384486317287924
 40
0.9626486443472693
 40
0.9868075465047681
 40
1.0
 40
1.0
 40
1.0
 40
1.0
 10
842.2313668501477
 20
-345.2733614776607
 30
0.0
 10
840.3301770372149
 20
-346.38538320337
 30
0.0
 10
835.5026668172557
 20
-349.2090340609333
 30
0.0
 10
827.8570790466334
 20
-353.9854108404712
 30
0.0
 10
819.3096132881791
 20
-359.6488588352486
 30
0.0
 10
810.8749553482126
 20
-365.5885817422499
 30
0.0
 10
802.5539683157402
 20
-371.7949301666604
 30
0.0
 10
794.3589177405846
 20
-378.2583609129784
 30
0.0
 10
786.3008155369392
 20
-384.9666122354501
 30
0.0
 10
778.3897206757191
 20
-391.9077274440998
 30
0.0
 10
770.6342457379475
 20
-399.0698444448593
 30
0.0
 10
763.0413024442094
 20
-406.4419851018098
 30
0.0
 10
755.6167604080222
 20
-414.0136552778669
 30
0.0
 10
748.3655663762183
 20
-421.7749549916369
 30
0.0
 10
741.2918831485658
 20
-429.7166239241066
 30
0.0
 10
734.3992392316468
 20
-437.8300530313624
 30
0.0
 10
727.6906753050622
 20
-446.1072670011729
 30
0.0
 10
721.1688804731293
 20
-454.5408881198871
 30
0.0
 10
714.8363138958055
 20
-463.1240888102262
 30
0.0
 10
708.6953102772569
 20
-471.8505387140904
 30
0.0
 10
702.7481694995593
 20
-480.7143502555952
 30
0.0
 10
696.9972318654563
 20
-489.7100250558952
 30
0.0
 10
691.4449410096606
 20
-498.8324022591332
 30
0.0
 10
686.0938967587927
 20
-508.0766087614412
 30
0.0
 10
680.9471023464861
 20
-517.4376427780991
 30
0.0
 10
676.0077726553603
 20
-526.9106574226172
 30
0.0
 10
671.2793507286088
 20
-536.4909405582428
 30
0.0
 10
666.7653716115472
 20
-546.1742545485786
 30
0.0
 10
662.4696854245047
 20
-555.9564315863975
 30
0.0
 10
658.3964960166858
 20
-565.8332837740641
 30
0.0
 10
654.5503856055295
 20
-575.8005224491768
 30
0.0
 10
650.936335114702
 20
-585.853662986997
 30
0.0
 10
647.5597381157348
 20
-595.9879127422918
 30
0.0
 10
644.4264051838563
 20
-606.1980406757422
 30
0.0
 10
641.5425549414445
 20
-616.478228685802
 30
0.0
 10
638.9147853619694
 20
-626.8219071912879
 30
0.0
 10
636.5500249062042
 20
-637.221580177475
 30
0.0
 10
634.4554380906934
 20
-647.6686516169639
 30
0.0
 10
632.6383543387388
 20
-658.1532609672049
 30
0.0
 10
631.1059415404328
 20
-668.6641744512593
 30
0.0
 10
629.8657541559324
 20
-679.1878443509407
 30
0.0
 10
628.9229391064093
 20
-689.7091443901088
 30
0.0
 10
628.2889017271638
 20
-700.2108536214744
 30
0.0
 10
627.9989600785907
 20
-709.1033945822987
 30
0.0
 10
627.9721647784745
 20
-714.4875658318952
 30
0.0
 10
627.9627007109864
 20
-716.3892485842177
 30
0.0
  0
SPLINE
  5
E3
330
1F
100
AcDbEntity
  8
0
  6
Continuous
 62
     7
370
    25
100
AcDbSpline
210
0.0
220
0.0
230
1.0
 70
     8
 71
     3
 72
    43
 73
    39
 74
     0
 42
0.00000001
 43
0.00000001
 40
0.0
 40
0.0
 40
0.0
 40
0.0
 40
0.0087836510697839
 40
0.0391599815246811
 40
0.0687512099058226
 40
0.0977036588806935
 40
0.1261545949775072
 40
0.1542306325555769
 40
0.1820463413098471
 40
0.2097030537658043
 40
0.2372879030471144
 40
0.2648731419705337
 40
0.292513631356811
 40
0.3202383525222222
 40
0.3480792902894831
 40
0.3760543240708517
 40
0.4041685351727148
 40
0.4324157730706191
 40
0.4607805296865097
 40
0.4892400647837626
 40
0.5177667238398985
 40
0.5463291033021678
 40
0.5748881211434063
 40
0.6034172768419835
 40
0.6318961698142218
 40
0.6603129365339426
 40
0.6886665238927329
 40
0.7169687152822157
 40
0.7452458279907244
 40
0.7735400052375371
 40
0.8019048709731028
 40
0.8303970131955126
 40
0.8591025799365801
 40
0.8881237326399154
 40
0.9175775132552216
 40
0.9475944614310424
 40
0.9783169661269993
 40
1.0
 40
1.0
 40
1.0
 40
1.0
 10
982.96148594284
 20
-716.5319088433955
 30
0.0
 10
982.9612821848663
 20
-716.5411395313618
 30
0.0
 10
982.9603737746359
 20
-716.5822925288285
 30
0.0
 10
982.9701247362458
 20
-716.3560866659598
 30
0.0
 10
983.0143930340854
 20
-715.8458973731109
 30
0.0
 10
983.109086515351
 20
-715.0308602198279
 30
0.0
 10
983.2684787539238
 20
-713.9499125790918
 30
0.0
 10
983.5064078433735
 20
-712.6080960297601
 30
0.0
 10
983.8351720282421
 20
-711.0202725270702
 30
0.0
 10
984.2657710668265
 20
-709.2000742035747
 30
0.0
 10
984.8077189280671
 20
-707.1631582744492
 30
0.0
 10
985.4688836163602
 20
-704.9267414270441
 30
0.0
 10
986.2551622648394
 20
-702.5103447879544
 30
0.0
 10
987.170349186575
 20
-699.9354260840466
 30
0.0
 10
988.2159917592575
 20
-697.2252289578531
 30
0.0
 10
989.3914323322741
 20
-694.4042329438691
 30
0.0
 10
990.6934831492251
 20
-691.4985080273502
 30
0.0
 10
992.1163217413977
 20
-688.5354384221645
 30
0.0
 10
993.6514477244134
 20
-685.5433552808361
 30
0.0
 10
995.2877101469459
 20
-682.5510934785084
 30
0.0
 10
997.0113830021138
 20
-679.5875389001216
 30
0.0
 10
998.8061724214547
 20
-676.6813576568699
 30
0.0
 10
1000.653647742434
 20
-673.8600789350427
 30
0.0
 10
1002.533631118686
 20
-671.1494723405871
 30
0.0
 10
1004.424776068644
 20
-668.57282508562
 30
0.0
 10
1006.304768127258
 20
-666.1508554222341
 30
0.0
 10
1008.150718793756
 20
-663.9014048778799
 30
0.0
 10
1009.939540778198
 20
-661.8392282961391
 30
0.0
 10
1011.648283123917
 20
-659.9758884048109
 30
0.0
 10
1013.254295172757
 20
-658.3198630359044
 30
0.0
 10
1014.735234188669
 20
-656.8767959036076
 30
0.0
 10
1016.069470662612
 20
-655.6492751259078
 30
0.0
 10
1017.236627275935
 20
-654.6367256204835
 30
0.0
 10
1018.21637229961
 20
-653.8364274717972
 30
0.0
 10
1018.992950625444
 20
-653.2409364748149
 30
0.0
 10
1019.536200338646
 20
-652.8501710761307
 30
0.0
 10
1019.837353525485
 20
-652.6501370800914
 30
0.0
 10
1019.838297539175
 20
-652.6498807934927
 30
0.0
 10
1019.838688129204
 20
-652.6497747537276
 30
0.0
  0
LWPOLYLINE
  5
E4
330
1F
100
AcDbEntity
  8
0
  6
Continuous
 62
     7
370
    25
100
AcDbPolyline
 90
      142
 70
   128
 43
0.0
 10
963.5010663062
 20
-335.3072081298
 10
963.6256619929
 20
-341.8355778894
 10
963.9992016797
 20
-348.4948412929
 10
964.6209437382
 20
-355.2717769893
 10
965.489653757
 20
-362.15293
 10
966.603606993
 20
-369.1246384327
 10
967.9605917949
 20
-376.1730606056
 10
969.5579139951
 20
-383.2842025289
 10
971.3924022582
 20
-390.4439456886
 10
973.4604143776
 20
-397.6380750774
 10
975.7578445066
 20
-404.8523074172
 10
978.2801313104
 20
-412.0723195176
 10
981.022267022
 20
-419.2837767129
 10
983.9788073847
 20
-426.4723613223
 10
987.1438824614
 20
-433.6238010764
 10
990.5112082885
 20
-440.7238974537
 10
994.0740993522
 20
-447.7585538699
 10
997.8254818621
 20
-454.713803666
 10
1001.7579077955
 20
-461.5758378372
 10
1005.8635696847
 20
-468.3310324499
 10
1010.134316118
 20
-474.9659756905
 10
1014.5616679238
 20
-481.4674944933
 10
1019.1368350048
 20
-487.8226806946
 10
1023.8507337903
 20
-494.0189166604
 10
1028.6940052705
 20
-500.0439003377
 10
1033.6570335784
 20
-505.8856696792
 10
1038.7299650805
 20
-511.5326263926
 10
1043.902727941
 20
-516.9735589681
 10
1049.165052118
 20
-522.1976649375
 10
1054.506489754
 20
-527.1945723222
 10
1059.9164359189
 20
-531.954360225
 10
1065.3841496654
 20
-536.4675785276
 10
1070.898775354
 20
-540.7252666529
 10
1076.4493642059
 20
-544.7189713552
 10
1082.0248960406
 20
-548.4407635035
 10
1087.6143011558
 20
-551.8832538239
 10
1093.2064823051
 20
-555.0396075707
 10
1098.7903367303
 20
-557.9035580955
 10
1104.3547782054
 20
-560.4694192898
 10
1109.888759047
 20
-562.7320968736
 10
1115.3812920482
 20
-564.6870985101
 10
1120.8214722933
 20
-566.3305427244
 10
1126.1984988079
 20
-567.6591666102
 10
1131.5016960036
 20
-568.6703323078
 10
1136.7205348733
 20
-569.3620322412
 10
1141.8446538955
 20
-569.7328931043
 10
1146.8638796061
 20
-569.7821785871
 10
1151.7682467971
 20
-569.5097908379
 10
1156.5480183015
 20
-568.9162706574
 10
1161.1937043252
 20
-568.0027964249
 10
1165.6960812889
 20
-566.771181759
 10
1170.0462101397
 20
-565.2238719165
 10
1174.2354540995
 20
-563.3639389379
 10
1178.2554958122
 20
-561.1950755481
 10
1182.0983538571
 20
-558.7215878245
 10
1185.7563985953
 20
-555.948386648
 10
1189.2223673174
 20
-552.8809779529
 10
1192.4893786635
 20
-549.5254517952
 10
1195.5509462849
 20
-545.8884702614
 10
1198.4009917226
 20
-541.9772542418
 10
1201.033856475
 20
-537.7995690938
 10
1203.444313233
 20
-533.3637092244
 10
1205.6275762578
 20
-528.6784816229
 10
1207.5793108828
 20
-523.7531883749
 10
1209.2956421194
 20
-518.5976081944
 10
1210.7731623509
 20
-513.2219770084
 10
1212.0089380977
 20
-507.6369676353
 10
1213.0005158413
 20
-501.853668594
 10
1213.7459268961
 20
-495.8835620896
 10
1214.2436913172
 20
-489.7385012158
 10
1214.4928208396
 20
-483.4306864222
 10
1214.4928208396
 20
-476.9726412912
 10
1214.2436913172
 20
-470.3771876737
 10
1213.7459268961
 20
-463.6574202322
 10
1213.0005158413
 20
-456.826680443
 10
1212.0089380977
 20
-449.8985301078
 10
1210.7731623509
 20
-442.8867244276
 10
1209.2956421194
 20
-435.8051846937
 10
1207.5793108828
 20
-428.6679706476
 10
1205.6275762578
 20
-421.4892525672
 10
1203.444313233
 20
-414.2832831327
 10
1201.033856475
 20
-407.0643691295
 10
1198.4009917226
 20
-399.8468430431
 10
1195.5509462849
 20
-392.6450346035
 10
1192.4893786635
 20
-385.4732423346
 10
1189.2223673174
 20
-378.3457051661
 10
1185.7563985953
 20
-371.2765741635
 10
1182.0983538571
 20
-364.2798844318
 10
1178.2554958122
 20
-357.369527251
 10
1174.2354540995
 20
-350.5592224955
 10
1170.0462101397
 20
-343.8624913952
 10
1165.6960812889
 20
-337.2926296896
 10
1161.1937043252
 20
-330.862681231
 10
1156.5480183014
 20
-324.585412087
 10
1151.7682467971
 20
-318.4732851944
 10
1146.8638796061
 20
-312.5384356154
 10
1141.8446538955
 20
-306.7926464443
 10
1136.7205348733
 20
-301.2473254139
 10
1131.5016960036
 20
-295.9134822457
 10
1126.1984988079
 20
-290.8017067915
 10
1120.8214722933
 20
-285.9221480084
 10
1115.3812920482
 20
-281.2844938087
 10
1109.888759047
 20
-276.8979518255
 10
1104.3547782054
 20
-272.7712311319
 10
1098.7903367303
 20
-268.9125249497
 10
1093.2064823051
 20
-265.3294943831
 10
1087.6143011558
 20
-262.0292532074
 10
1082.0248960406
 20
-259.0183537461
 10
1076.4493642059
 20
-256.3027738613
 10
1070.898775354
 20
-253.8879050855
 10
1065.3841496654
 20
-251.7785419173
 10
1059.9164359189
 20
-249.9788723018
 10
1054.506489754
 20
-248.4924693165
 10
1049.165052118
 20
-247.3222840769
 10
1043.902727941
 20
-246.4706398776
 10
1038.7299650805
 20
-245.9392275792
 10
1033.6570335784
 20
-245.7291022518
 10
1028.6940052705
 20
-245.8406810796
 10
1023.8507337903
 20
-246.2737425332
 10
1019.1368350048
 20
-247.0274268092
 10
1014.5616679238
 20
-248.1002375373
 10
1010.134316118
 20
-249.490044751
 10
1005.8635696847
 20
-251.1940891168
 10
1001.7579077955
 20
-253.2089874123
 10
997.8254818621
 20
-255.5307392435
 10
994.0740993522
 20
-258.1547349869
 10
990.5112082885
 20
-261.075764942
 10
987.1438824614
 20
-264.2880296742
 10
983.9788073847
 20
-267.7851515291
 10
981.022267022
 20
-271.5601872951
 10
978.2801313104
 20
-275.605641988
 10
975.7578445066
 20
-279.913483732
 10
973.4604143776
 20
-284.4751597062
 10
971.3924022582
 20
-289.281613125
 10
969.5579139951
 20
-294.3233012202
 10
967.9605917949
 20
-299.5902141867
 10
966.603606993
 20
-305.0718950563
 10
965.489653757
 20
-310.7574604592
 10
964.6209437382
 20
-316.6356222314
 10
963.9992016797
 20
-322.6947098268
 10
963.6256619929
 20
-328.922693488
 10
963.5010663062
 20
-335.3072081298
  0
LWPOLYLINE
  5
E5
330
1F
100
AcDbEntity
  8
0
  6
Continuous
 62
     7
370
    25
100
AcDbPolyline
 90
      129
 70
   128
 43
0.0
 10
986.2699046604
 20
-348.4513787301
 10
986.3936626401
 20
-342.7012679618
 10
986.7646384355
 20
-337.1078976359
 10
987.3819383333
 20
-331.6847426714
 10
988.2440752041
 20
-326.4448679237
 10
989.3489720846
 20
-321.4008967101
 10
990.6939671815
 20
-316.5649803989
 10
992.2758202837
 20
-311.9487691362
 10
994.0907205685
 20
-307.5633837792
 10
996.1342957823
 20
-303.4193891053
 10
998.4016227733
 20
-299.5267683607
 10
1000.8872393522
 20
-295.8948992098
 10
1003.585157451
 20
-292.5325311433
 10
1006.4888775487
 20
-289.4477644005
 10
1009.5914043291
 20
-286.6480304547
 10
1012.8852635336
 20
-284.1400741102
 10
1016.3625199668
 20
-281.9299372535
 10
1020.0147966134
 20
-280.0229442978
 10
1023.833294819
 20
-278.4236893562
 10
1027.808815487
 20
-277.1360251739
 10
1031.93178124
 20
-276.1630538469
 10
1036.1922594922
 20
-275.5071193481
 10
1040.5799863784
 20
-275.1698018812
 10
1045.0843914802
 20
-275.1519140737
 10
1049.6946232912
 20
-275.4534990187
 10
1054.3995753591
 20
-276.0738301717
 10
1059.1879130423
 20
-277.0114131007
 10
1064.0481008159
 20
-278.2639890863
 10
1068.9684300619
 20
-279.8285405631
 10
1073.9370472761
 20
-281.7012983896
 10
1078.9419826245
 20
-283.8777509283
 10
1083.9711787794
 20
-286.3526549143
 10
1089.0125199668
 20
-289.120048087
 10
1094.0538611542
 20
-292.1732635541
 10
1099.0830573091
 20
-295.5049458519
 10
1104.0879926575
 20
-299.1070686661
 10
1109.0566098717
 20
-302.9709541672
 10
1113.9769391177
 20
-307.0872939166
 10
1118.8371268913
 20
-311.4461712913
 10
1123.6254645745
 20
-316.037085374
 10
1128.3304166424
 20
-320.8489762505
 10
1132.9406484534
 20
-325.8702516541
 10
1137.4450535552
 20
-331.0888148927
 10
1141.8327804414
 20
-336.4920939904
 10
1146.0932586936
 20
-342.0670719744
 10
1150.2162244466
 20
-347.8003182345
 10
1154.1917451146
 20
-353.6780208783
 10
1158.0102433202
 20
-359.6860200054
 10
1161.6625199668
 20
-365.8098418195
 10
1165.1397764
 20
-372.0347334976
 10
1168.4336356045
 20
-378.3456987303
 10
1171.5361623849
 20
-384.7275338496
 10
1174.4398824826
 20
-391.1648644558
 10
1177.1378005813
 20
-397.6421824555
 10
1179.6234171603
 20
-404.1438834224
 10
1181.8907441513
 20
-410.6543041894
 10
1183.9343193651
 20
-417.1577605825
 10
1185.7492196499
 20
-423.6385852058
 10
1187.3310727521
 20
-430.0811651849
 10
1188.6760678489
 20
-436.4699797806
 10
1189.7809647294
 20
-442.7896377787
 10
1190.6431016002
 20
-449.0249145696
 10
1191.2604014981
 20
-455.1607888254
 10
1191.6313772935
 20
-461.1824786877
 10
1191.7551352732
 20
-467.075477378
 10
1191.6313772935
 20
-472.8255881463
 10
1191.2604014981
 20
-478.4189584722
 10
1190.6431016002
 20
-483.8421134367
 10
1189.7809647294
 20
-489.0819881843
 10
1188.6760678489
 20
-494.125959398
 10
1187.3310727521
 20
-498.9618757091
 10
1185.7492196499
 20
-503.5780869719
 10
1183.9343193651
 20
-507.9634723289
 10
1181.8907441513
 20
-512.1074670028
 10
1179.6234171603
 20
-516.0000877473
 10
1177.1378005813
 20
-519.6319568983
 10
1174.4398824826
 20
-522.9943249648
 10
1171.5361623849
 20
-526.0790917075
 10
1168.4336356045
 20
-528.8788256533
 10
1165.1397764
 20
-531.3867819979
 10
1161.6625199668
 20
-533.5969188546
 10
1158.0102433202
 20
-535.5039118103
 10
1154.1917451146
 20
-537.1031667519
 10
1150.2162244466
 20
-538.3908309341
 10
1146.0932586936
 20
-539.3638022612
 10
1141.8327804414
 20
-540.01973676
 10
1137.4450535552
 20
-540.3570542269
 10
1132.9406484534
 20
-540.3749420344
 10
1128.3304166424
 20
-540.0733570894
 10
1123.6254645745
 20
-539.4530259364
 10
1118.8371268913
 20
-538.5154430074
 10
1113.9769391177
 20
-537.2628670218
 10
1109.0566098717
 20
-535.698315545
 10
1104.0879926575
 20
-533.8255577184
 10
1099.0830573091
 20
-531.6491051798
 10
1094.0538611542
 20
-529.1742011938
 10
1089.0125199668
 20
-526.406808021
 10
1083.9711787794
 20
-523.353592554
 10
1078.9419826245
 20
-520.0219102562
 10
1073.9370472761
 20
-516.419787442
 10
1068.9684300619
 20
-512.5559019409
 10
1064.0481008159
 20
-508.4395621915
 10
1059.1879130423
 20
-504.0806848168
 10
1054.3995753591
 20
-499.4897707341
 10
1049.6946232912
 20
-494.6778798576
 10
1045.0843914802
 20
-489.656604454
 10
1040.5799863784
 20
-484.4380412153
 10
1036.1922594922
 20
-479.0347621177
 10
1031.93178124
 20
-473.4597841337
 10
1027.808815487
 20
-467.7265378736
 10
1023.833294819
 20
-461.8488352297
 10
1020.0147966134
 20
-455.8408361027
 10
1016.3625199668
 20
-449.7170142886
 10
1012.8852635336
 20
-443.4921226105
 10
1009.5914043291
 20
-437.1811573778
 10
1006.4888775487
 20
-430.7993222585
 10
1003.585157451
 20
-424.3619916523
 10
1000.8872393522
 20
-417.8846736526
 10
998.4016227733
 20
-411.3829726856
 10
996.1342957823
 20
-404.8725519187
 10
994.0907205685
 20
-398.3690955255
 10
992.2758202837
 20
-391.8882709023
 10
990.6939671815
 20
-385.4456909231
 10
989.3489720846
 20
-379.0568763275
 10
988.2440752041
 20
-372.7372183294
 10
987.3819383333
 20
-366.5019415385
 10
986.7646384355
 20
-360.3660672826
 10
986.3936626401
 20
-354.3443774204
 10
986.2699046604
 20
-348.4513787301
  0
LWPOLYLINE
  5
E6
330
1F
100
AcDbEntity
  8
0
  6
Continuous
 62
     7
370
    25
100
AcDbPolyline
 90
      142
 70
   128
 43
0.0
 10
679.9512470504
 20
-826.4299001164
 10
685.6669828197
 20
-823.2741312091
 10
691.6205618981
 20
-820.2684829065
 10
697.8001640053
 20
-817.4189226454
 10
704.1935201135
 20
-814.7311079636
 10
710.7879368058
 20
-812.2103752686
 10
717.5703214784
 20
-809.8617292418
 10
724.5272083342
 20
-807.6898329024
 10
731.6447851184
 20
-805.6989983496
 10
738.908920541
 20
-803.8931782011
 10
746.3051923337
 20
-802.2759577456
 10
753.8189158834
 20
-800.8505478248
 10
761.4351733875
 20
-799.6197784579
 10
769.1388434717
 20
-798.5860932238
 10
776.9146312122
 20
-797.7515444086
 10
784.7470985021
 20
-797.117788932
 10
792.6206947027
 20
-796.6860850566
 10
800.5197875175
 20
-796.4572898906
 10
808.4286940289
 20
-796.4318576856
 10
816.3317118351
 20
-796.6098389349
 10
824.2131502258
 20
-796.9908802731
 10
832.0573613346
 20
-797.5742251781
 10
839.8487712065
 20
-798.3587154724
 10
847.5719107183
 20
-799.3427936233
 10
855.2114462915
 20
-800.5245058346
 10
862.7522103353
 20
-801.9015059261
 10
870.1792313607
 20
-803.4710599916
 10
877.477763705
 20
-805.2300518268
 10
884.6333168077
 20
-807.1749891162
 10
891.6316839805
 20
-809.3020103669
 10
898.4589706132
 20
-811.606892575
 10
905.1016217602
 20
-814.0850596104
 10
911.5464490524
 20
-816.7315913016
 10
917.7806568819
 20
-819.5412332051
 10
923.7918678061
 20
-822.5084070369
 10
929.568147122
 20
-825.6272217479
 10
935.0980265619
 20
-828.8914852204
 10
940.3705270619
 20
-832.2947165613
 10
945.3751805603
 20
-835.8301589699
 10
950.1020507809
 20
-839.4907931523
 10
954.5417529604
 20
-843.2693512585
 10
958.6854724811
 20
-847.1583313109
 10
962.5249823714
 20
-851.1500120997
 10
966.0526596398
 20
-855.2364685121
 10
969.2615004097
 20
-859.4095872673
 10
972.1451338248
 20
-863.6610830241
 10
974.6978346977
 20
-867.9825148314
 10
976.9145348773
 20
-872.3653028862
 10
978.7908333105
 20
-876.8007455686
 10
980.3230047804
 20
-881.2800367177
 10
981.5080073024
 20
-885.7942831156
 10
982.3434881637
 20
-890.3345221438
 10
982.8277885944
 20
-894.891739578
 10
982.9599470607
 20
-899.456887485
 10
982.7397011744
 20
-904.020902186
 10
982.1674882132
 20
-908.5747222524
 10
981.244444253
 20
-913.1093064959
 10
979.9724019121
 20
-917.6156519192
 10
978.3538867129
 20
-922.0848115907
 10
976.3921120674
 20
-926.5079124075
 10
974.0909728977
 20
-930.8761727123
 10
971.4550379025
 20
-935.1809197287
 10
968.4895404868
 20
-939.4136067799
 10
965.2003683712
 20
-943.5658302576
 10
961.5940519025
 20
-947.6293463065
 10
957.6777510882
 20
-951.5960871914
 10
953.4592413811
 20
-955.4581773157
 10
948.9468982416
 20
-959.2079488567
 10
944.1496805096
 20
-962.8379569904
 10
939.0771126166
 20
-966.3409946714
 10
933.7392656767
 20
-969.7101069428
 10
928.1467374909
 20
-972.9386047439
 10
922.3106315062
 20
-976.0200781913
 10
916.2425347709
 20
-978.9484093047
 10
909.9544949294
 20
-981.7177841536
 10
903.4589963027
 20
-984.3227044007
 10
896.768935102
 20
-986.7579982179
 10
889.8975938246
 20
-989.0188305549
 10
882.8586148827
 20
-991.1007127381
 10
875.6659735172
 20
-992.9995113834
 10
868.333950052
 20
-994.7114566017
 10
860.8771015408
 20
-996.2331494843
 10
853.3102328661
 20
-997.5615688508
 10
845.6483673454
 20
-998.6940772475
 10
837.9067169033
 20
-999.6284261838
 10
830.1006518702
 20
-1000.3627605965
 10
822.2456704657
 20
-1000.8956225324
 10
814.3573680282
 20
-1001.2259540436
 10
806.4514060521
 20
-1001.3530992874
 10
798.5434810931
 20
-1001.2768058287
 10
790.6492936041
 20
-1000.9972251411
 10
782.7845167638
 20
-1000.5149123062
 10
774.9647653585
 20
-999.8308249115
 10
767.2055647808
 20
-998.9463211491
 10
759.5223202053
 20
-997.8631571194
 10
751.9302860028
 20
-996.5834833444
 10
744.4445354545
 20
-995.1098404978
 10
737.0799308252
 20
-993.4451543611
 10
729.8510938558
 20
-991.5927300146
 10
722.7723767328
 20
-989.5562452754
 10
715.8578335938
 20
-987.3397433953
 10
709.1211926243
 20
-984.9476250336
 10
702.5758288014
 20
-982.3846395201
 10
696.2347373389
 20
-979.6558754251
 10
690.1105078871
 20
-976.7667504572
 10
684.2152995366
 20
-973.7230007066
 10
678.560816678
 20
-970.5306692567
 10
673.1582857635
 20
-967.196094186
 10
668.0184330183
 20
-963.7258959847
 10
663.151463144
 20
-960.1269644102
 10
658.5670390591
 20
-956.4064448078
 10
654.274262713
 20
-952.571723925
 10
650.2816570159
 20
-948.6304152451
 10
646.5971489168
 20
-944.5903438715
 10
643.2280536655
 20
-940.4595309922
 10
640.1810602888
 20
-936.2461779536
 10
637.4622183099
 20
-931.9586499782
 10
635.0769257379
 20
-927.605459556
 10
633.0299183506
 20
-923.1952495436
 10
631.3252602914
 20
-918.7367760047
 10
629.9663360013
 20
-914.2388908258
 10
628.9558434986
 20
-909.7105241417
 10
628.2957890226
 20
-905.1606666052
 10
627.9874830505
 20
-900.5983515372
 10
628.0315376951
 20
-896.0326369922
 10
628.4278654901
 20
-891.4725877736
 10
629.1756795633
 20
-886.927257437
 10
630.2734951991
 20
-882.4056703153
 10
631.7191327861
 20
-877.9168036009
 10
633.5097221448
 20
-873.4695695233
 10
635.6417082257
 20
-869.0727976541
 10
638.1108581678
 20
-864.7352173769
 10
640.9122697025
 20
-860.4654405557
 10
644.0403808864
 20
-856.2719444373
 10
647.4889811443
 20
-852.16305482
 10
651.2512235997
 20
-848.1469295237
 10
655.3196386685
 20
-844.2315421936
 10
659.686148889
 20
-840.4246664688
 10
664.3420849594
 20
-836.7338605485
 10
669.2782029497
 20
-833.1664521865
 10
674.4847026544
 20
-829.7295241416
 10
679.9512470504
 20
-826.4299001164
  0
LWPOLYLINE
  5
E7
330
1F
100
AcDbEntity
  8
0
  6
Continuous
 62
     7
370
    25
100
AcDbPolyline
 90
      129
 70
   128
 43
0.0
 10
702.7200854046
 20
-839.5740707168
 10
697.8025021969
 20
-842.5558189977
 10
693.1442818374
 20
-845.6732719077
 10
688.7566463868
 20
-848.9189192298
 10
684.6501660434
 20
-852.2849419153
 10
680.8347336779
 20
-855.7632309206
 10
677.3195410012
 20
-859.345406743
 10
674.1130564201
 20
-863.022839607
 10
671.2230046371
 20
-866.7866702549
 10
668.6563480399
 20
-870.6278312889
 10
666.4192699291
 20
-874.5370690156
 10
664.5171596218
 20
-878.504965739
 10
662.9545994684
 20
-882.5219624482
 10
661.7353538131
 20
-886.5783818464
 10
660.8623599255
 20
-890.664451664
 10
660.3377209244
 20
-894.7703282008
 10
660.162700711
 20
-898.8861200407
 10
660.3377209244
 20
-903.0019118805
 10
660.8623599255
 20
-907.1077884174
 10
661.7353538131
 20
-911.1938582349
 10
662.9545994684
 20
-915.2502776332
 10
664.5171596218
 20
-919.2672743424
 10
666.4192699291
 20
-923.2351710658
 10
668.6563480399
 20
-927.1444087925
 10
671.2230046371
 20
-930.9855698265
 10
674.1130564202
 20
-934.7494004743
 10
677.3195410012
 20
-938.4268333384
 10
680.8347336779
 20
-942.0090091607
 10
684.6501660434
 20
-945.4872981661
 10
688.7566463868
 20
-948.8533208516
 10
693.1442818374
 20
-952.0989681737
 10
697.8025021969
 20
-955.2164210837
 10
702.7200854046
 20
-958.1981693646
 10
707.8851845717
 20
-961.0370297235
 10
713.285356522
 20
-963.7261630973
 10
718.9075917682
 20
-966.259091128
 10
724.7383458532
 20
-968.6297117702
 10
730.7635719797
 20
-970.8323139911
 10
736.9687548502
 20
-972.861591529
 10
743.3389456356
 20
-974.7126556766
 10
749.8587979883
 20
-976.3810470582
 10
756.5126050131
 20
-977.8627463729
 10
763.2843371059
 20
-979.1541840773
 10
770.157680571
 20
-980.2522489847
 10
777.116076922
 20
-981.1542957607
 10
784.1427627726
 20
-981.8581512955
 10
791.2208102211
 20
-982.3621199395
 10
798.3331676312
 20
-982.6649875882
 10
805.462700711
 20
-982.7660246067
 10
812.5922337908
 20
-982.6649875882
 10
819.7045912009
 20
-982.3621199395
 10
826.7826386494
 20
-981.8581512955
 10
833.8093244999
 20
-981.1542957607
 10
840.7677208509
 20
-980.2522489847
 10
847.6410643161
 20
-979.1541840773
 10
854.4127964089
 20
-977.8627463729
 10
861.0666034336
 20
-976.3810470582
 10
867.5864557864
 20
-974.7126556766
 10
873.9566465718
 20
-972.861591529
 10
880.1618294423
 20
-970.8323139911
 10
886.1870555687
 20
-968.6297117702
 10
892.0178096537
 20
-966.259091128
 10
897.6400449
 20
-963.7261630973
 10
903.0402168503
 20
-961.0370297235
 10
908.2053160174
 20
-958.1981693646
 10
913.1228992251
 20
-955.2164210837
 10
917.7811195846
 20
-952.0989681737
 10
922.1687550351
 20
-948.8533208516
 10
926.2752353785
 20
-945.4872981661
 10
930.090667744
 20
-942.0090091607
 10
933.6058604208
 20
-938.4268333384
 10
936.8123450018
 20
-934.7494004743
 10
939.7023967849
 20
-930.9855698265
 10
942.2690533821
 20
-927.1444087925
 10
944.5061314929
 20
-923.2351710658
 10
946.4082418002
 20
-919.2672743424
 10
947.9708019536
 20
-915.2502776332
 10
949.1900476089
 20
-911.1938582349
 10
950.0630414965
 20
-907.1077884174
 10
950.5876804976
 20
-903.0019118805
 10
950.762700711
 20
-898.8861200407
 10
950.5876804976
 20
-894.7703282008
 10
950.0630414965
 20
-890.664451664
 10
949.1900476089
 20
-886.5783818464
 10
947.9708019536
 20
-882.5219624482
 10
946.4082418002
 20
-878.504965739
 10
944.5061314929
 20
-874.5370690156
 10
942.2690533821
 20
-870.6278312889
 10
939.7023967849
 20
-866.7866702549
 10
936.8123450018
 20
-863.022839607
 10
933.6058604208
 20
-859.345406743
 10
930.090667744
 20
-855.7632309206
 10
926.2752353785
 20
-852.2849419153
 10
922.1687550351
 20
-848.9189192298
 10
917.7811195846
 20
-845.6732719077
 10
913.1228992251
 20
-842.5558189977
 10
908.2053160174
 20
-839.5740707168
 10
903.0402168503
 20
-836.7352103578
 10
897.6400449
 20
-834.0460769841
 10
892.0178096537
 20
-831.5131489534
 10
886.1870555687
 20
-829.1425283112
 10
880.1618294423
 20
-826.9399260903
 10
873.9566465718
 20
-824.9106485524
 10
867.5864557864
 20
-823.0595844048
 10
861.0666034336
 20
-821.3911930231
 10
854.4127964089
 20
-819.9094937084
 10
847.6410643161
 20
-818.6180560041
 10
840.7677208509
 20
-817.5199910967
 10
833.8093244999
 20
-816.6179443207
 10
826.7826386493
 20
-815.9140887859
 10
819.7045912009
 20
-815.4101201418
 10
812.5922337908
 20
-815.1072524932
 10
805.462700711
 20
-815.0062154747
 10
798.3331676312
 20
-815.1072524932
 10
791.2208102211
 20
-815.4101201418
 10
784.1427627726
 20
-815.9140887859
 10
777.116076922
 20
-816.6179443207
 10
770.157680571
 20
-817.5199910967
 10
763.2843371059
 20
-818.6180560041
 10
756.5126050131
 20
-819.9094937084
 10
749.8587979883
 20
-821.3911930231
 10
743.3389456356
 20
-823.0595844048
 10
736.9687548502
 20
-824.9106485524
 10
730.7635719797
 20
-826.9399260903
 10
724.7383458532
 20
-829.1425283112
 10
718.9075917682
 20
-831.5131489534
 10
713.285356522
 20
-834.0460769841
 10
707.8851845717
 20
-836.7352103578
 10
702.7200854046
 20
-839.5740707168
  0
LWPOLYLINE
  5
E8
330
1F
100
AcDbEntity
  8
0
  6
Continuous
 62
     1
370
    25
100
AcDbPolyline
 90
       19
 70
   128
 43
0.0
 10
930.9741543716
 20
-643.93302866
 10
936.5652944542
 20
-647.016846626
 10
942.1453338458
 20
-649.8067849566
 10
947.7031938946
 20
-652.2973044873
 10
953.2278399839
 20
-654.4834605222
 10
958.7083034403
 20
-656.3609126509
 10
964.1337033109
 20
-657.9259333659
 10
969.4932679665
 20
-659.1754154634
 10
974.7763564876
 20
-660.1068782125
 10
979.9724797909
 20
-660.71847228
 10
985.0713214546
 20
-661.0089834025
 10
990.0627582005
 20
-660.9778347972
 10
994.936879993
 20
-660.6250883066
 10
999.6840097144
 20
-659.9514442763
 10
1004.2947223782
 20
-658.9582401641
 10
1008.759863841
 20
-657.6474478848
 10
1013.0705689779
 20
-656.0216698953
 10
1017.2182792828
 20
-654.0841340272
 10
1019.716941893
 20
-652.7207076228
  0
LWPOLYLINE
  5
E9
330
1F
100
AcDbEntity
  8
0
  6
Continuous
 62
     1
370
    25
100
AcDbPolyline
 90
       54
 70
   128
 43
0.0
 10
842.2313668501
 20
-345.2733614777
 10
838.832000621
 20
-347.3922026328
 10
835.1270570918
 20
-350.090968561
 10
831.6124091023
 20
-353.0853736997
 10
828.2950346607
 20
-356.3694729349
 10
825.1815201068
 20
-359.9367459914
 10
822.2780470356
 20
-363.7801103788
 10
819.5903800241
 20
-367.8919354528
 10
817.1238551865
 20
-372.2640575655
 10
814.8833695793
 20
-376.887796273
 10
812.8733714796
 20
-381.7539715701
 10
811.0978515523
 20
-386.8529221163
 10
809.560334928
 20
-392.1745244171
 10
808.2638742036
 20
-397.7082129239
 10
807.2110433818
 20
-403.4430010102
 10
806.4039327609
 20
-409.3675027853
 10
805.8441447842
 20
-415.4699556991
 10
805.532790859
 20
-421.7382438964
 10
805.4704891496
 20
-428.1599222711
 10
805.6573633503
 20
-434.7222411752
 10
806.0930424398
 20
-441.4121717321
 10
806.7766614174
 20
-448.2164317037
 10
807.706863021
 20
-455.1215118618
 10
808.8818004215
 20
-462.1137028089
 10
810.2991408893
 20
-469.1791221971
 10
811.9560704262
 20
-476.3037422902
 10
813.8492993519
 20
-483.4734178145
 10
815.9750688356
 20
-490.6739140429
 10
818.3291583589
 20
-497.8909350566
 10
820.9068940948
 20
-505.1101521285
 10
823.7031581877
 20
-512.3172321713
 10
826.7123989141
 20
-519.4978661947
 10
829.9286417049
 20
-526.6377977145
 10
833.345501008
 20
-533.7228510576
 10
836.9561929654
 20
-540.7389595064
 10
840.7535488824
 20
-547.672193227
 10
844.7300294604
 20
-554.5087869256
 10
848.8777397653
 20
-561.2351671783
 10
853.1884449022
 20
-567.8379793798
 10
857.653586365
 20
-574.3041142574
 10
862.2642990288
 20
-580.6207338991
 10
867.0114287502
 20
-586.7752972412
 10
871.8855505427
 20
-592.7555849678
 10
876.8769872886
 20
-598.5497237713
 10
881.9758289523
 20
-604.1462099254
 10
887.1719522556
 20
-609.5339321248
 10
892.4550407767
 20
-614.7021935459
 10
897.8146054323
 20
-619.640733084
 10
903.2400053029
 20
-624.3397457259
 10
908.7204687593
 20
-628.7899020171
 10
914.2451148486
 20
-632.9823665841
 10
919.8029748974
 20
-636.9088156767
 10
925.383014289
 20
-640.5614536935
 10
930.9741543716
 20
-643.93302866
  0
LWPOLYLINE
  5
EA
330
1F
100
AcDbEntity
  8
0
  6
Continuous
 62
     1
370
    25
100
AcDbPolyline
 90
       19
 70
   128
 43
0.0
 10
930.9741543716
 20
-643.93302866
 10
936.4406987676
 20
-647.2326526851
 10
941.6471984723
 20
-650.66958073
 10
946.5833164626
 20
-654.2369890921
 10
951.239252533
 20
-657.9277950123
 10
955.6057627535
 20
-661.7346707372
 10
959.6741778222
 20
-665.6500580673
 10
963.4364202776
 20
-669.6661833635
 10
966.8850205356
 20
-673.7750729808
 10
970.0131317195
 20
-677.9685690993
 10
972.8145432542
 20
-682.2383459204
 10
975.2836931963
 20
-686.5759261977
 10
977.4156792772
 20
-690.9726980669
 10
979.2062686359
 20
-695.4199321444
 10
980.6519062229
 20
-699.9087988588
 10
981.7497218587
 20
-704.4303859806
 10
982.4975359319
 20
-708.9757163171
 10
982.8938637268
 20
-713.5357655357
 10
982.962700711
 20
-716.3892485842
  0
LWPOLYLINE
  5
EB
330
1F
100
AcDbEntity
  8
0
  6
Continuous
 62
     1
370
    25
100
AcDbPolyline
 90
       54
 70
   128
 43
0.0
 10
627.962700711
 20
-716.3892485842
 10
628.0976128276
 20
-712.3948681216
 10
628.5819132583
 20
-707.8376506873
 10
629.4173941196
 20
-703.2974116591
 10
630.6023966416
 20
-698.7831652613
 10
632.1345681115
 20
-694.3038741121
 10
634.0108665447
 20
-689.8684314297
 10
636.2275667242
 20
-685.4856433749
 10
638.7802675972
 20
-681.1642115677
 10
641.6639010122
 20
-676.9127158108
 10
644.8727417821
 20
-672.7395970557
 10
648.4004190506
 20
-668.6531406432
 10
652.2399289409
 20
-664.6614598544
 10
656.3836484615
 20
-660.772479802
 10
660.823350641
 20
-656.9939216959
 10
665.5502208617
 20
-653.3332875134
 10
670.5548743601
 20
-649.7978451049
 10
675.8273748601
 20
-646.394613764
 10
681.3572543
 20
-643.1303502915
 10
687.1335336159
 20
-640.0115355804
 10
693.1447445401
 20
-637.0443617486
 10
699.3789523696
 20
-634.2347198451
 10
705.8237796618
 20
-631.5881881539
 10
712.4664308088
 20
-629.1100211186
 10
719.2937174415
 20
-626.8051389104
 10
726.2920846143
 20
-624.6781176597
 10
733.447637717
 20
-622.7331803703
 10
740.7461700613
 20
-620.9741885351
 10
748.1731910867
 20
-619.4046344696
 10
755.7139551304
 20
-618.0276343781
 10
763.3534907036
 20
-616.8459221668
 10
771.0766302155
 20
-615.861844016
 10
778.8680400873
 20
-615.0773537216
 10
786.7122511962
 20
-614.4940088167
 10
794.5936895869
 20
-614.1129674784
 10
802.4967073931
 20
-613.9349862291
 10
810.4056139045
 20
-613.9604184341
 10
818.3047067193
 20
-614.1892136001
 10
826.1783029199
 20
-614.6209174755
 10
834.0107702098
 20
-615.2546729522
 10
841.7865579502
 20
-616.0892217673
 10
849.4902280345
 20
-617.1229070015
 10
857.1064855386
 20
-618.3536763683
 10
864.6202090883
 20
-619.7790862892
 10
872.0164808809
 20
-621.3963067446
 10
879.2806163036
 20
-623.2021268931
 10
886.3981930878
 20
-625.1929614459
 10
893.3550799436
 20
-627.3648577853
 10
900.1374646161
 20
-629.7135038122
 10
906.7318813085
 20
-632.2342365072
 10
913.1252374166
 20
-634.9220511889
 10
919.3048395239
 20
-637.7716114501
 10
925.2584186023
 20
-640.7772597526
 10
930.9741543716
 20
-643.93302866
  0
ENDSEC
  0
SECTION
  2
OBJECTS
  0
DICTIONARY
  5
C
330
0
100
AcDbDictionary
281
     1
  3
ACAD_GROUP
350
D
  3
ACAD_LAYOUT
350
1A
  3
ACAD_MLINESTYLE
350
17
  3
ACAD_PLOTSETTINGS
350
19
  3
ACAD_PLOTSTYLENAME
350
E
  3
ACAD_SCALELIST
350
47
  3
DWGPROPS
350
EC
  0
DICTIONARY
  5
D
102
{ACAD_REACTORS
330
C
102
}
330
C
100
AcDbDictionary
281
     1
  0
DICTIONARY
  5
1A
102
{ACAD_REACTORS
330
C
102
}
330
C
100
AcDbDictionary
281
     1
  3
Layout1
350
1E
  3
Layout2
350
26
  3
Model
350
22
  0
DICTIONARY
  5
17
102
{ACAD_REACTORS
330
C
102
}
330
C
100
AcDbDictionary
281
     1
  3
Standard
350
18
  0
DICTIONARY
  5
19
102
{ACAD_REACTORS
330
C
102
}
330
C
100
AcDbDictionary
281
     1
  0
ACDBDICTIONARYWDFLT
  5
E
102
{ACAD_REACTORS
330
C
102
}
330
C
100
AcDbDictionary
281
     1
  3
Normal
350
F
100
AcDbDictionaryWithDefault
340
F
  0
DICTIONARY
  5
47
102
{ACAD_REACTORS
330
C
102
}
330
C
100
AcDbDictionary
281
     1
  3
A0
350
48
  3
A1
350
49
  3
A2
350
4A
  3
A3
350
4B
  3
A4
350
4C
  3
A5
350
4D
  3
A6
350
4E
  3
A7
350
4F
  3
A8
350
50
  3
A9
350
51
  3
B0
350
52
  3
B1
350
53
  3
B2
350
54
  3
B3
350
55
  3
B4
350
56
  3
B5
350
57
  3
B6
350
58
  3
B7
350
59
  3
B8
350
5A
  3
B9
350
5B
  3
C0
350
5C
  3
C1
350
5D
  3
C2
350
5E
  3
C3
350
5F
  3
C4
350
60
  3
C5
350
61
  3
C6
350
62
  3
C7
350
63
  3
C8
350
64
  3
C9
350
65
  3
D0
350
66
  3
D1
350
67
  3
D2
350
68
  0
XRECORD
  5
EC
102
{ACAD_REACTORS
330
C
102
}
330
C
100
AcDbXrecord
280
     1
  1
DWGPROPS COOKIE
  2

  3

  4

  6

  7

  8
b.kav
  9

300
=
301
=
302
=
303
=
304
=
305
=
306
=
307
=
308
=
309
=
 40
0.0
 41
2459935.57445007
 42
2459935.574450254
  1

 90
        0
  0
LAYOUT
  5
1E
102
{ACAD_REACTORS
330
1A
102
}
330
1A
100
AcDbPlotSettings
  1

  2
none_device
  4

  6

 40
0.0
 41
0.0
 42
0.0
 43
0.0
 44
0.0
 45
0.0
 46
0.0
 47
0.0
 48
0.0
 49
0.0
140
0.0
141
0.0
142
1.0
143
1.0
 70
   688
 72
     1
 73
     0
 74
     5
  7

 75
    16
147
1.0
148
0.0
149
0.0
100
AcDbLayout
  1
Layout1
 70
     1
 71
     1
 10
0.0
 20
0.0
 11
420.0
 21
297.0
 12
0.0
 22
0.0
 32
0.0
 14
1.0000000000E+20
 24
1.0000000000E+20
 34
1.0000000000E+20
 15
-1.0000000000E+20
 25
-1.0000000000E+20
 35
-1.0000000000E+20
146
0.0
 13
0.0
 23
0.0
 33
0.0
 16
1.0
 26
0.0
 36
0.0
 17
0.0
 27
1.0
 37
0.0
 76
     0
330
1B
  0
LAYOUT
  5
26
102
{ACAD_REACTORS
330
1A
102
}
330
1A
100
AcDbPlotSettings
  1

  2
none_device
  4

  6

 40
0.0
 41
0.0
 42
0.0
 43
0.0
 44
0.0
 45
0.0
 46
0.0
 47
0.0
 48
0.0
 49
0.0
140
0.0
141
0.0
142
1.0
143
1.0
 70
   688
 72
     1
 73
     0
 74
     5
  7

 75
    16
147
1.0
148
0.0
149
0.0
100
AcDbLayout
  1
Layout2
 70
     1
 71
     2
 10
0.0
 20
0.0
 11
0.0
 21
0.0
 12
0.0
 22
0.0
 32
0.0
 14
0.0
 24
0.0
 34
0.0
 15
0.0
 25
0.0
 35
0.0
146
0.0
 13
0.0
 23
0.0
 33
0.0
 16
1.0
 26
0.0
 36
0.0
 17
0.0
 27
1.0
 37
0.0
 76
     0
330
23
  0
LAYOUT
  5
22
102
{ACAD_REACTORS
330
1A
102
}
330
1A
100
AcDbPlotSettings
  1

  2
none_device
  4
Letter_(8.50_x_11.00_Inches)
  6

 40
6.35
 41
6.35
 42
6.35000508
 43
6.35000508
 44
215.9
 45
279.4
 46
0.0
 47
0.0
 48
0.0
 49
0.0
140
0.0
141
0.0
142
1.0
143
1.0
 70
  1712
 72
     1
 73
     0
 74
     0
  7

 75
     0
147
1.0
148
0.0
149
0.0
100
AcDbLayout
  1
Model
 70
     1
 71
     0
 10
0.0
 20
0.0
 11
279.4
 21
215.9
 12
0.0
 22
0.0
 32
0.0
 14
0.0
 24
0.0
 34
0.0
 15
279.4
 25
215.9
 35
0.0
146
0.0
 13
0.0
 23
0.0
 33
0.0
 16
1.0
 26
0.0
 36
0.0
 17
0.0
 27
1.0
 37
0.0
 76
     0
330
1F
331
29
  0
MLINESTYLE
  5
18
102
{ACAD_REACTORS
330
17
102
}
330
17
100
AcDbMlineStyle
  2
Standard
 70
     0
  3

 62
   256
 51
90.0
 52
90.0
 71
     2
 49
0.5
 62
   256
  6
BYLAYER
 49
-0.5
 62
   256
  6
BYLAYER
  0
ACDBPLACEHOLDER
  5
F
102
{ACAD_REACTORS
330
E
102
}
330
E
  0
SCALE
  5
48
102
{ACAD_REACTORS
330
47
102
}
330
47
100
AcDbScale
 70
     0
300
1:1
140
1.0
141
1.0
290
     1
  0
SCALE
  5
49
102
{ACAD_REACTORS
330
47
102
}
330
47
100
AcDbScale
 70
     0
300
1:2
140
1.0
141
2.0
290
     0
  0
SCALE
  5
4A
102
{ACAD_REACTORS
330
47
102
}
330
47
100
AcDbScale
 70
     0
300
1:4
140
1.0
141
4.0
290
     0
  0
SCALE
  5
4B
102
{ACAD_REACTORS
330
47
102
}
330
47
100
AcDbScale
 70
     0
300
1:5
140
1.0
141
5.0
290
     0
  0
SCALE
  5
4C
102
{ACAD_REACTORS
330
47
102
}
330
47
100
AcDbScale
 70
     0
300
1:8
140
1.0
141
8.0
290
     0
  0
SCALE
  5
4D
102
{ACAD_REACTORS
330
47
102
}
330
47
100
AcDbScale
 70
     0
300
1:10
140
1.0
141
10.0
290
     0
  0
SCALE
  5
4E
102
{ACAD_REACTORS
330
47
102
}
330
47
100
AcDbScale
 70
     0
300
1:16
140
1.0
141
16.0
290
     0
  0
SCALE
  5
4F
102
{ACAD_REACTORS
330
47
102
}
330
47
100
AcDbScale
 70
     0
300
1:20
140
1.0
141
20.0
290
     0
  0
SCALE
  5
50
102
{ACAD_REACTORS
330
47
102
}
330
47
100
AcDbScale
 70
     0
300
1:30
140
1.0
141
30.0
290
     0
  0
SCALE
  5
51
102
{ACAD_REACTORS
330
47
102
}
330
47
100
AcDbScale
 70
     0
300
1:40
140
1.0
141
40.0
290
     0
  0
SCALE
  5
52
102
{ACAD_REACTORS
330
47
102
}
330
47
100
AcDbScale
 70
     0
300
1:50
140
1.0
141
50.0
290
     0
  0
SCALE
  5
53
102
{ACAD_REACTORS
330
47
102
}
330
47
100
AcDbScale
 70
     0
300
1:100
140
1.0
141
100.0
290
     0
  0
SCALE
  5
54
102
{ACAD_REACTORS
330
47
102
}
330
47
100
AcDbScale
 70
     0
300
2:1
140
2.0
141
1.0
290
     0
  0
SCALE
  5
55
102
{ACAD_REACTORS
330
47
102
}
330
47
100
AcDbScale
 70
     0
300
4:1
140
4.0
141
1.0
290
     0
  0
SCALE
  5
56
102
{ACAD_REACTORS
330
47
102
}
330
47
100
AcDbScale
 70
     0
300
8:1
140
8.0
141
1.0
290
     0
  0
SCALE
  5
57
102
{ACAD_REACTORS
330
47
102
}
330
47
100
AcDbScale
 70
     0
300
10:1
140
10.0
141
1.0
290
     0
  0
SCALE
  5
58
102
{ACAD_REACTORS
330
47
102
}
330
47
100
AcDbScale
 70
     0
300
100:1
140
100.0
141
1.0
290
     0
  0
SCALE
  5
59
102
{ACAD_REACTORS
330
47
102
}
330
47
100
AcDbScale
 70
     0
300
1/128" = 1'-0"
140
0.0078125
141
12.0
290
     0
  0
SCALE
  5
5A
102
{ACAD_REACTORS
330
47
102
}
330
47
100
AcDbScale
 70
     0
300
1/64" = 1'-0"
140
0.015625
141
12.0
290
     0
  0
SCALE
  5
5B
102
{ACAD_REACTORS
330
47
102
}
330
47
100
AcDbScale
 70
     0
300
1/32" = 1'-0"
140
0.03125
141
12.0
290
     0
  0
SCALE
  5
5C
102
{ACAD_REACTORS
330
47
102
}
330
47
100
AcDbScale
 70
     0
300
1/16" = 1'-0"
140
0.0625
141
12.0
290
     0
  0
SCALE
  5
5D
102
{ACAD_REACTORS
330
47
102
}
330
47
100
AcDbScale
 70
     0
300
3/32" = 1'-0"
140
0.09375
141
12.0
290
     0
  0
SCALE
  5
5E
102
{ACAD_REACTORS
330
47
102
}
330
47
100
AcDbScale
 70
     0
300
1/8" = 1'-0"
140
0.125
141
12.0
290
     0
  0
SCALE
  5
5F
102
{ACAD_REACTORS
330
47
102
}
330
47
100
AcDbScale
 70
     0
300
3/16" = 1'-0"
140
0.1875
141
12.0
290
     0
  0
SCALE
  5
60
102
{ACAD_REACTORS
330
47
102
}
330
47
100
AcDbScale
 70
     0
300
1/4" = 1'-0"
140
0.25
141
12.0
290
     0
  0
SCALE
  5
61
102
{ACAD_REACTORS
330
47
102
}
330
47
100
AcDbScale
 70
     0
300
3/8" = 1'-0"
140
0.375
141
12.0
290
     0
  0
SCALE
  5
62
102
{ACAD_REACTORS
330
47
102
}
330
47
100
AcDbScale
 70
     0
300
1/2" = 1'-0"
140
0.5
141
12.0
290
     0
  0
SCALE
  5
63
102
{ACAD_REACTORS
330
47
102
}
330
47
100
AcDbScale
 70
     0
300
3/4" = 1'-0"
140
0.75
141
12.0
290
     0
  0
SCALE
  5
64
102
{ACAD_REACTORS
330
47
102
}
330
47
100
AcDbScale
 70
     0
300
1" = 1'-0"
140
1.0
141
12.0
290
     0
  0
SCALE
  5
65
102
{ACAD_REACTORS
330
47
102
}
330
47
100
AcDbScale
 70
     0
300
1-1/2" = 1'-0"
140
1.5
141
12.0
290
     0
  0
SCALE
  5
66
102
{ACAD_REACTORS
330
47
102
}
330
47
100
AcDbScale
 70
     0
300
3" = 1'-0"
140
3.0
141
12.0
290
     0
  0
SCALE
  5
67
102
{ACAD_REACTORS
330
47
102
}
330
47
100
AcDbScale
 70
     0
300
6" = 1'-0"
140
6.0
141
12.0
290
     0
  0
SCALE
  5
68
102
{ACAD_REACTORS
330
47
102
}
330
47
100
AcDbScale
 70
     0
300
1'-0" = 1'-0"
140
12.0
141
12.0
290
     0
  0
ENDSEC
  0
EOF
